Song name
# A B C D E F G H I J K L M N O P Q R S T U V W X Y Z

Toad The Wet Sprocket - Listen tab

Highlighted       Show chord diagrams
Listen
------
by Toad the Wet Sprocket
transcribed by Mike Nidel (man146@psu.edu)
Revised by: Walter Tien

opening riff
h= hammer on, p= pull off
G|-----------------|-----------------|
D|-------------0---|--4(+1/2)--2-----|
A|---------0h2---0-|-----------------|
E|--0--2-3---------|-----------------|
 
G|-----------------|-----2h4-4p2-----|
D|-------------0---|--4-----------4--|
A|---------0h2---0-|-----------------|
E|--0--2-3---------|-----------------|

G|-----------------|-----------------|
D|-------------0---|--4(+1/2)--2-----|
A|---------0h2---0-|-----------------|
E|--0--2-3---------|-----------------|

G|-----------------|-----------------|
D|--0--2(+1/4)-0---|-----------------|
A|-----------------|--2--0-----------|
E|-----------------|-----------------|

Well I wonder
Do we learn?
Seems we're making  the same wrong turn
Call you sacred
Call you obscene
Call you faithless  Call you anything
Call and you listen

G   D   A       G   Bm   A
Listen       listen

I'm the liar
So it seems
My desires  will justify anything
So is there nothing     that lies in between
This cold silence  and a scream
Scream,    listen

G  D   A   G   Bm   A    G
listen,    listen

(bridge)
A                               E
Caught in headlights, we are frozen, cannot hide

D                       E
There's no way, no time if you can I might

Em   G   D   A     Em   G   D   A
listen

(repeat chorus)


 
Tap to rate this tab
# A B C D E F G H I J K L M N O P Q R S T U V W X Y Z