Song name
# A B C D E F G H I J K L M N O P Q R S T U V W X Y Z

Toad The Wet Sprocket - Dont Go Away tab

"Don't Go Away" - Pale
     By: Toad The Wet Sprocket

Transcribed By: Walter Tien (walter@nb.net)

Capo 2nd Fret

Notes: Play D chord as an open C up 2 frets
       Em & C chords ring and get this fill: --5-2------------------|
                                             -------5-*-------------|
                    * = 2 for Em, 3 for C    ------------4(+1/4)-2--|
                                             -----------------------|
                                             -----------------------|
                                             -----------------------|
G D
Em C D
Em C Em C D
G D Em C D
G D
Em C Em C D
G C Em C D

Solo
------------------------------------------------|
------------------------------------------------|
---------11-----------14-----------16--14--13---|
--11h12--------11h12--------11h12---------------|
------------------------------------------------|
------------------------------------------------|

------------------17--------------------------------|
--17--17--------------17----17(+1)--15--------------|
----------18--18------------------------16(+1)--14--|
----------------------------------------------------|
----------------------------------------------------|
----------------------------------------------------|

Strum
-----------------------------|-------------------------------|
--14--12--10--9--7--5--7--9--|--14--15--12--14--10--9--7--5--|
--14--13--11--9--7--6--7--9--|--14--16--13--14--11--9--7--6--|
-----------------------------|-------------------------------|
-----------------------------|-------------------------------|
-----------------------------|-------------------------------|

G D Em C D (Repeat & Fade out)
Tap to rate this tab
# A B C D E F G H I J K L M N O P Q R S T U V W X Y Z