Song name
# A B C D E F G H I J K L M N O P Q R S T U V W X Y Z

Toad The Wet Sprocket - Chicken tab

Chicken
  By Toad The Wet Sprocket off "RnR Party All Night Vol III"
  Transcribed by: Walter Tien
  Revised by: SkoshBrain@aol.com

Intro & Verses
--------------
  Guitar 1: Mute all 6 strings over the 12th fret and strum to rhythm.

  Guitar 2: E---14-14-14------------------------------------------------|
            B-------------14-14-14--------------------------------------|
            G-----------------------14-14-14----------------------------|
            D---------------------------------14-14-14------------------|

  Fill: ----------------------------|
        ----------------------------|
        --------0h2/4---------0h2---|
        ---0h2-----------0h2--------|
        ----------------------------|
        ----------------------------|

Chorus
------
  G  Em
  G  Em
  G  Em
  C  D   (Play D by sliding open C chord up 2 frets)

Solo
----

--------------------------------------------------------------|
---8--7--8--------8--7----------------------------------------|
------------7-----------7\4--------------14\12\11--12\7/9-----|
-----------------------------5/12--------------------------9--|
-------------------------------------10-----------------------|
--------------------------------------------------------------|
Tap to rate this tab
# A B C D E F G H I J K L M N O P Q R S T U V W X Y Z