Song name
# A B C D E F G H I J K L M N O P Q R S T U V W X Y Z

Toad The Wet Sprocket - So Alive tab

So Alive
By Toad The Wet Sprocket
Transcribed by: "daniel rodriguez" 

chords:
B5:024000
C*:034000
Asus3:002000
G4:133000
F9:133400


INTRO

Part1
-0--0-0-0--0-0-0-0--0-0--0-0--0-0--0--0--0-0---0--0-0---0-------------|
-3/5-5/3-/5-5-5/3/5-5-/-3-/5-5-5/7-/8-8/7-7-/-5--5-5--5--5------------|
----------------------------------------------------------------------|
----------------------------------------------------------------------|
----------------------------------------------------------------------|
----------------------------------------------------------------------|

Part2
-0--0-0-0--0-0-0-0--0-0--0-0--0-0--0--0--0-0---0--0-0---0-------------|
-3/5-5/3-/5-5-5/3/5-5-/-3-/5-5-5/7-/8-8/--10/-12--12/---15------------|
----------------------------------------------------------------------|
----------------------------------------------------------------------|
----------------------------------------------------------------------|
----------------------------------------------------------------------|

Part3
    Asus4      G4              F9
-----------------------------------------------0----------------------|
-------0-------------0----------------------------0-------------------|
---------0---------------0--------------2------------2----------------|
-----2-------------------------------------3------------3-------------|
---0-------------5------------------3---------------------------------|
-------------3----------------1---------------------------------------|
 Moving in waves      Caught in a       slow       landslide
 sleeping still but so      alive...

B5
Soft between these sheets I shiver
C*
I move in time
B5
My thoughts collide and body whispers
C*
Am I alive

Part2

B5
This place will speak its language to me
C*
I slip inside
B5
A breath escapes and I fly with it
C*
I am so alive

Part1 and Part2
I am alive (3x)

Part3

BREAK

             REPEAT 2 TIMES
----------------------------------------------------------------------|
----------------------------------------------------------------------|
------0------------0-----------0-------------0------------------------|
----4---4-------4-----4-----4------4-------4-----4--------------------|
--2----------2-----------3--------------3-----------------------------|
----------------------------------------------------------------------|

Part1 and Part2
 I am alive (3x)

Part3
Moving in waves.....

last past
--5h7---8p7-----------------------------------------------------------|
-------------8-8p7-5--5/3--0-0h-1--1-0--------------------------------|
-----------------------------------------2h0--------------------------|
----------------------------------------------2h0---------------------|
----------------------------------------------------2h0---------------|
----------------------------------------------------------0-----------|
Tap to rate this tab
# A B C D E F G H I J K L M N O P Q R S T U V W X Y Z