Guitaretab - guitar tabs
Song name
# A B C D E F G H I J K L M N O P Q R S T U V W X Y Z

Toad The Wet Sprocket - Come Down tab

"Come Down" off the album Coil
Transcription by: Walter Tien (walter@nb.net)
                  Scott Josselyn (SBJosselyn@aol.com)
                  Mike Mazur (mmazur@WPI.EDU)
                  Steve Cunningham (Walrus5150@aol.com)

Capo 1st Fret (tab relative to capo)

Song opens with feedback on an open A chord then:

Intro:

|--3--2--0----|-----3--------|
|--3--3--0----|--1--3--0-----|
|--0--2--0----|--0--0--2----*|
|--0--0--2----|--2--0--2----*|
|--2--0--2----|--3--2--0-----|
|--3--2--0----|--------------|


Verse:

Guitar 1
|--3--12-10---5---|--------|
|--3--12-10---5---|--3--5--|
|--0----------0--*|--3--5--|
|--0----------0--*|--3--5--|
|--2----------4---|--1--3--|
|--3----------5---|--------|

Guitar 2
|--3----------5---|--6--8--|
|--3----------5---|--6--8--|
|--0----------0--*|--0--0--|
|--0----------0--*|--0--0--|
|--2----------4---|--5--7--|
|--3----------5---|--6--8--|

open up and let me in
i was lucky to live, dont need to win
forgave myself and if that's a sin
it's not enough you'd even know it

you did right to call my bluff
'cause i won't say when i've had enough
and i worked so hard to need this stuff
and you tried so long to just ignore it


Chorus:

|--3--2--0----|-----3--------|
|--3--3--0----|--1--3--0-----|
|--0--2--0----|--0--0--2----*|
|--0--0--2----|--2--0--2----*|
|--2--0--2----|--3--2--0-----|
|--3--2--0----|--------------|
[ Tab from: http://www.guitaretab.com/t/toad-the-wet-sprocket/19513.html ]
won't you come down where i am
word are hidden, understand

Fill
|--0-----------------------|
|----5--3--------0---------|
|----------0--2-----2--0--*|
|-------------------------*|
|--------------------------|
|--------------------------|


Verse:

i wont repeat myself again
i will not repeat myself again
it's another promise d.o.a.
and despite my every hope
there is no truth behind my best intentioned oath


Chorus:

won't you come down where i am
words are hidden, understand
won't you come down
been away too long i know i have


Solo:

|------------------|---------------|
|--7h8-8-8-8-8-8---|--10-10-12-10--|
|--7--------------*|--9--9--9--9---|
|-----------------*|---------------|
|------------------|---------------|
|------------------|---------------|

|---------------------|
|--7h8-8-8-7-5---7s8--|
|--7-----7-7-6---6s7--|
|---------------------|
|---------------------|
|---------------------|

|-------------------------------------|---------|
|--11-11-11-11-11-11-13b15r13-11-10---|--13b15--|
|--10-10-10-10-10-10-12b14r12-10-9---*|--12b14--|
|------------------------------------*|---------|
|-------------------------------------|---------|
|-------------------------------------|---------|

won't you come down, help me stand
there is healing in your hands
won't you come down where i am
words all leave me

been away to long
i know i've been away to long
i know i have

 
Related for Come Down tab
Advertisement will be closed in 10 seconds