Song name
# A B C D E F G H I J K L M N O P Q R S T U V W X Y Z

Toad The Wet Sprocket - Jam tab

Jam
    By: Toad The Wet Sprocket
    Transcribed By: Walter Tien


||--2--0-----------0--------3-----2p0--------|
||--3-----3-----------3-----3----------3-----|
||--2--------2-----------2--0--0----------0--|
||--0-----------0-----------0----------------|
||--------------------------2----------------|
||--------------------------3----------------|
                                                                             

|--2--0--------0--------0--------3-----2p0---/7--10--7------|
|--3-----3--------3--------3-----3----------3-----------10--|
|--2--------2--------2--------2--0--0-----------------------|
|--0-----------------------------0--------------------------|
|--------------------------------2--------------------------|
|--------------------------------3--------------------------|
                                                                              

||-----------------------------------------||--------------------------|
||---5p3-----3--------2--2h3-----3---------||--------3-----------3-----|
||*--2----------2--------2-------2--2-----*||-----------0-----------0--|
||*--0----0--------0-----0----0--0-----0--*||-----2-----------0--------|
||-----------------------------------------||--3-----------------------|
||-----------------------------------------||--------------3-----------|

                                                                              
||-----------------------------------------||
||---5p3-----3--------2--2h3-----3---------||
||*--2----------2--------2-------2--2-----*||
||*--0----0--------0-----0----0--0-----0--*||
||-----------------------------------------||
||-----------------------------------------||
                                                                              

|--------3-----------------------|-----2--------2h3p2--------3--2--|
|-----------3-----------3--------|--------3------------3-----------|
|--------------0-----------0-----|-----------2------------2--------|
|-----2-----------------------0--|--0------------------------------|
|--3-----------------2-----------|---------------------------------|
|-----------------3--------------|---------------------------------|
                                                                              
   strum                                               strum                     
|--0--0-----3--2-----|--2--0--------0--------0-----|---0--0-----3--2-----|
|--0-----0--3-----3--|--3-----3--------3--------3--|---0-----0--3-----3--|
|--0--------0--------|--2--------2--------2--------|---0--------0--------|
|--2--------0--------|--0--------------------------|---2--------0--------|
|--2--------2--------|-----------------------------|---2--------2--------|
|--0--------3--------|-----------------------------|---0--------3--------|

                                                                               
||-----------------------------------------||--------------------3-----|
||---5p3-----3--------2--2h3-----3---------||--------3--------------3--|
||*--2----------2--------2-------2--2-----*||-----------0--------------|
||*--0----0--------0-----0----0--0-----0--*||-----2-----------0--------|
||-----------------------------------------||--3-----------------------|
||-----------------------------------------||--------------3-----------|

                                                                               
||-----------------------------------------||
||---5p3-----3--------2--2h3-----3---------||
||*--2----------2--------2-------2--2-----*||
||*--0----0--------0-----0----0--0-----0--*||
||-----------------------------------------||
||-----------------------------------------||

                                                                              
|--------3-----------------------|-----2--------2h3p2--------3--2--|
|-----------3-----------3--------|--------3------------3-----------|
|--------------0-----------0-----|-----------2------------2--------|
|-----2-----------------------0--|--0------------------------------|
|--3-----------------2-----------|---------------------------------|
|-----------------3--------------|---------------------------------|
                                                                              
   strum                 strum----------------|      strum         
|--0--0-----3--2-----|---2--3--2--0--2--3--2--0--|---0--0-----3--2-----|
|--0-----0--3-----3--|---3--3--3--3--3--3--3--3--|---0-----0--3-----3--|
|--0--------0--------|---2--2--2--2--2--2--2--2--|---0--------0--------|
|--2--------0--------|---0--0--0--0--0--0--0--0--|---2--------0--------|
|--2--------2--------|---------------------------|---2--------2--------|
|--0--------3--------|---------------------------|---0--------3--------|
                                                                              

|--2--0--------0--------0--------3-----2p0---/7--10--7------|
|--3-----3--------3--------3-----3----------3-----------10--|
|--2--------2--------2--------2--0--0-----------------------|
|--0-----------------------------0--------------------------|
|--------------------------------2--------------------------|
|--------------------------------3--------------------------|

                                                strum---|                   
|--2--0--------0--------0--------3-----2p0------10--8---7--|
|--3-----3--------3--------3-----3----------3---12--10--8--|
|--2--------2--------2--------2--0--0----------------------|
|--0-----------------------------0-------------------------|
|--------------------------------2-------------------------|
|--------------------------------3-------------------------|

                                                                              
|----------------------------|-----3-------|
|-----------3----------------|--3--3--3----|
|--2-----------2--0h2-----2--|--0--0--0h2--|
|----------------------------|--2--0--0----|
|----------------------------|--3--2-------|
|----------------------------|-----3-------|

                                                                              
||-----------------------------------------||-----3--------3--3--------|
||---5p3-----3--------2--2h3-----3---------||--3-----3-----3-----3-----|
||*--2----------2--------2-------2--2-----*||--0--------0--0--------0--|
||*--0----0--------0-----0----0--0-----0--*||--2-----------0-----------|
||-----------------------------------------||--3-----------2-----------|
||-----------------------------------------||--------------3-----------|

                                     strum                                        
|--2--2--------2-----3--2--0--2--|---0--0-----3--2-----|
|--3-----3-----3-----3--3--3--3--|---0-----0--3-----3--|
|--2--------2--2-----2--2--2--2--|---0--------0--------|
|--0-----------0--0--0--0--0--0--|---2--------0--------|
|--------------------------------|---2--------2--------|
|--------------------------------|---0--------3--------|

   strum----------------|      strum                    
|--2--3--2--0--2--3--2--0--|---0--0-----3--2-----|
|--3--3--3--3--3--3--3--3--|---0-----0--3-----3--|
|--2--2--2--2--2--2--2--2--|---0--------0--------|
|--0--0--0--0--0--0--0--0--|---2--------0--------|
|--------------------------|---2--------2--------|
|--------------------------|---0--------3--------|

   strum----------------|      strum                               
|--2--3--2--0--2--3--2--0--|---0--0-----3--2-----|
|--3--3--3--3--3--3--3--3--|---0-----0--3-----3--|
|--2--2--2--2--2--2--2--2--|---0--------0--------|
|--0--0--0--0--0--0--0--0--|---2--------0--------|
|--------------------------|---2--------2--------|
|--------------------------|---0--------3--------|

   strum----------------|      strum                               
|--2--3--2--0--2--3--2--0--|---0--0-----3--2-----|--2--0--------||
|--3--3--3--3--3--3--3--3--|---0-----0--3-----3--|--3-----3-----||
|--2--2--2--2--2--2--2--2--|---0--------0--------|--2--------2--||
|--0--0--0--0--0--0--0--0--|---2--------0--------|--0-----------||
|--------------------------|---2--------2--------|--0-----------||
|--------------------------|---0--------3--------|--------------||


 
Tap to rate this tab
 
# A B C D E F G H I J K L M N O P Q R S T U V W X Y Z