Guitaretab - guitar tabs
Song name
# A B C D E F G H I J K L M N O P Q R S T U V W X Y Z

Toad The Wet Sprocket - Little Buddha tab

Little Buddha
by Toad the Wet Sprocket
Transcription by Scott Josselyn (SBJosselyn@aol.com or Scott975@aol.com)


|------0--------------------------------0----------------------------|
|--------3-----1-------0-------2----------3-----1-------0-------2----|
|o---2-----------3-------2-------0----2-----------3-------2-------0--|
|o-0---------3---------------2------0---------3---------------2------|
|----------1---------0-----0----------------1---------0-----0--------|
|------------------3--------------------------------3----------------|

-------0--------------------------------0----------------------------|
---------3-----1-------0-------2----------3-----1-------0-------2----|
-----2-----------3-------2-------0----2-----------3-------2-------0--|
---0---------3---------------2------0---------3---------------2------|
-----------1---------0-----0----------------1---------0-----0--------|
-------------------3--------------------------------3----------------|
 1. life is suffering tee-hee, ha-ha..
 2. cold and shuddering tee-hee, ha-ha...

-----0---------------------------------------------------------0----|
-------3-----1--------2---------0---------------2-------3------1----|
---2-----------3--------0---------2------0--------0-------0----0---o|
-0---------3--------2---------0-------2/4-----2-------3------2-----o|
---------1--------0-------------------------0-------1-------3-------|
----------------------------3-------0-------------------------------|
 1. life is suffering tee-hee, ha-ha..
 2. cruel and pummeling tee-hee, ha-ha..

----------1------------------------2-----------|
----------1------------------------2-----------|
--------3------------------------4-------------|
------3------------------------4---------------|
----1------------------------2-----------------|
-----------------------------------------------|
             smile on little buddha, smile on..

it's only illusion, then it's gone
----------1--------------------------0--------------------------0-----|
----------1----------------1-----------3------3--------1--------1-----|
--------3--------------------0-----2------------2--------0------0-----|
------3------------------2--------------------------------------------|
----1------------------3--------/5------------------------------------|
--------------------------------------------3--------1--------3-------|
           little buddha, smile on
                                             it's only illusion,
                                          then it's gone
[ Tab from: http://www.guitaretab.com/t/toad-the-wet-sprocket/44979.html ]
-------0------------------------------1-0-----------------------------|
---------3-----1-------0-------2----------3-1-----------0-------2-----|
-----2-----------3-------2-------0------------3-2-0-------2-------0---|
---0---------3---------------2------0---------------3---------2-------|
-----------1---------0-----0----------------1---------0-----0---------|
-------------------3--------------------------------3-----------------|

-------0--------------------------------0----------------------------|
---------3-----1-------0-------2----------3-----1-------0-------2----|
-----2-----------3-------2-------0----2-----------3-------2-------0--|
---0---------3---------------2------0---------3---------------2------|
-----------1---------0-----0----------------1---------0-----0--------|
-------------------3--------------------------------3----------------|
    lost and struggling tee-hee, ha-ha

-----0---------------------------------------------------------0-----|
-------3-----1--------2---------0---------------2-------3------1-----|
---2-----------3--------0---------2------0--------0-------0----0-----|
-0---------3--------2---------0-------2/4-----2-------3------2-------|
---------1--------0-------------------------0-------1-------3--------|
----------------------------3-------0--------------------------------|
    life is suffering tee-hee, ha-ha

----------1------------------------2-----------|
----------1------------------------2-----------|
--------3------------------------4-------------|
------3------------------------4---------------|
----1------------------------2-----------------|
-----------------------------------------------|
             smile on little buddha, smile on..

it's only illusion, then it's gone
----------1--------------------------0--------0--------0--------0-----|
----------1----------------1-----------3------3--------1--------1-----|
--------3--------------------0-----2----------2--------0--------0-----|
------3------------------2--------------------------------------------|
----1------------------3--------/5------------------------------------|
--------------------------------------------3--------1--------3-------|
           little buddha, smile on
                                             it's only illusion,
                                          then you're gone

(heavly distorted)
----1--1--1----0--0--0----|
----1--1--1----1--1--3----|
----3--3--3----0--0--2----| x8 while someone keeps saying "maya"
----3--3--3----2--2--0----|
----1--1--1----3--3-------|
--------------------------|
Related for Little Buddha tab
Little Buddha chords by Toad The Wet Sprocket