Song name
# A B C D E F G H I J K L M N O P Q R S T U V W X Y Z

Toad The Wet Sprocket - Unquiet tab

Unquiet
By: Toad The Wet Sprocket
Transcribed by: "daniel rodriguez" 
Revised by: Walter Tien (walter@nb.net)

Chords:
A9:5450xx
Am:x02210
C:x32010
G:320033

INTRO
   F4     Em      G    F#/d    F4    Em
---------------------------------------------------------
---------------------------------------------------------
-----0-0----0-0----0-0---0-0---0--0---0--0---------------
----0-0----0-0----0-0---0-0---0-0----0--0----------------
---3------2------2-----0-----3------2--------------------
-1-------0------3-----2-----1------0---------------------

Fill 1
  GUITAR 1       
--5---------------|
--5---------------|
--0--------------*|
--x---let ring---*|
--4---------------|
--5---------------|

Riff
------------------------------------------------------
------------------------------------------------------
-----0----0------0-----0----0------0----0-----0-------
----5---5------5-----5-----5-----5-----5----5---------
---4---------4------------4-----------4---------------
--5----3--h5------p3-----5----3-----h5---p3-----------

VERSE with Riff
I am taught but i never learn a thing
I am not deaf but i can`t hear everything

Fill2
  F       Em       G     F#
---------------------------------------
--8--8/10-------8---12-----------------
-7--7------7-7h9--9/12-----------------
---------------------------------------
---------------------------------------
---------------------------------------

Intro with fill2
A quiet world
    unquiet

Fill3                         (3x)
----------------------------3p2--|
-----------3--------3-----3------|
---0------0--0-----0-0---2-------|
--4--4---2--------0-----0--------|
-2------3--------2---------------|
0---------------3----------------|

---------------------------------|
-----------3-------1--1------1---|
---0------0--0----0--0------0----|
--4--4---2-------2---------2-----|
-2------3-------0---------3------|
0--------------------------------|


Fill3
 I would sell the world
    would I...


 
Tap to rate this tab
 
# A B C D E F G H I J K L M N O P Q R S T U V W X Y Z