Song name
# A B C D E F G H I J K L M N O P Q R S T U V W X Y Z

Toad The Wet Sprocket - Hobbit On The Rocks tab

Highlighted       Show chord diagrams
Hobbit On The Rocks
By Toad The Wet Sprocket
Transcribed By: Daniel Rodriguez 

Chords:
A:x02220
E:022100
Am:x02210
D:xx0230
Asus3:x02120
A7:x02020
G:320033
D3:xx0222
D7:XX0212
C:X32010


INTRO
note: the guitar is in the same way as the drums
 E           A         E  A
There is an old Virginian vibraphone
 E    A         E A
With a calculate gait
 E    A             E     A
And a man who thinks he is Al Capone
 E        A                E
With a cummerbund and cape


FILL1
---------------------------------------------------|
---------------------------------------------------|
---------------------------------------------------|
---0h2-0-------------------------------------------|
-----------0h2--2-0--------------------------------|
-----------------------3-2-0-----------------------|

Donīt criticize what a vicar would do four you
And talk to the man...

 second verse
 E
There is an orchestra.....


CHORUS:
D                     E              A  Asus3 A7
And the hobbit on the rocks is crying
D                     E              A  Asus3 A7
And the fish upon the docks are dying
    G                  E      A     D
For the grunion in the sand entwining


BREAK(D)


FILL2
-----------------------------------------------|
-----------------------------------------------|
-0h2---0---------------------------------------|
-----------0h2-2-0-----------------------------|
----------------------3-2-0--------------------|
-----------------------------------------------|

Donīt criticize what a vicar......


chorus
   G                 A                D  D3 D7
And the hobbit on the rocks is crying
   G                 A                D   D3 D7
And the fish on the docks are dying
   G                 A                D   D3  D7
For the grunion in the sand entwining
       C               A    D       G
And the hobbit on the rocks is crying
Tap to rate this tab
# A B C D E F G H I J K L M N O P Q R S T U V W X Y Z