Song name
# A B C D E F G H I J K L M N O P Q R S T U V W X Y Z

Toadies - Plane Crash tab

Toadies - Plane Crash
tabbed by: Shawn Klapproth
email: Shawn Klapproth
tuning: EADGBe

INTRO

Guitar 1
|------------------------------|
|-10-10-10-10--13-1313-13-1313-|
|-10-10-10-10--13-1313-13-1313-|
|-10-10-10-10--13-1313-13-1313-|
|-8--8--8--8---11-1111-11-1111-|
|--------------11-1111-11-1111-|
|
|Guitar 2
|-----------------------------|
|-10-10-10-10-----------------|
|-10-10-10-10-----------------|
|-10-10-10-10---8-88-8-88-----|
|-8--8--8--8----8-88-8-88-----|
|---------------6-66-6-66-----|


VERSE
Guitar 1
|--------------------------|
|--------------------------|
|-3-3-3--------------------|
|-3-3-3---6-6-6---3-3-2----|
|-1-1-1---6-6-6---3-3-2----|
|---------4-4-4---1-1-0----|
|
|Guitar 2
|------8-8-8----|     Guitar 2 plays this
|-6-6-6---------|     during the second
|---------------|     part of the verse
|---------------|
|---------------|
|---------------|


Guitar 1
|---------------------------------|
|---------------------------------|
|-6-6-6-6-6-6-6-6-6-6-6-6-6-6-6-6-|
|---------------------------------|
|-4-4-4-4-4-4-4-4-4-4-4-4-4-4-4-4-|
|---------------------------------|
|
|Guitar 2
|---------------------------------|
|---------------------------------|
|-6-6-6-6-6-6-6-6-6-6-6-6-6-6-6-6-|
|---------------------------------|
|-4-4-4-4-4-4-4-4-4-4-4-4-4-4-4-4-|
|---------------------------------|

"We know what we really want..."


Guitar 1
|------------------------------|
|-10-10-10-10--13-1313-13-1313-|
|-10-10-10-10--13-1313-13-1313-|
|-10-10-10-10--13-1313-13-1313-|
|-8--8--8--8---11-1111-11-1111-|
|--------------11-1111-11-1111-|
|
|Guitar 2
|-----------------------------|
|-10-10-10-10-----------------|
|-10-10-10-10-----------------|
|-10-10-10-10---8-88-8-88-----|
|-8--8--8--8----8-88-8-88-----|
|---------------6-66-6-66-----|


VERSE
Guitar 1
|--------------------------|
|--------------------------|
|-3-3-3--------------------|
|-3-3-3---6-6-6---3-3-2----|
|-1-1-1---6-6-6---3-3-2----|
|---------4-4-4---1-1-0----|
|
|Guitar 2
|---------8-8-8-|
|-6-6-6---------|
|---------------|
|---------------|
|---------------|
|---------------|

Guitar 1
|------------------------------|
|-10-10-10-10--13-1313-13-1313-|
|-10-10-10-10--13-1313-13-1313-|
|-10-10-10-10--13-1313-13-1313-|
|-8--8--8--8---11-1111-11-1111-|
|--------------11-1111-11-1111-|
|
|Guitar 2
|---------------------12*-|
|-------------------------|    * overtones
|-9*--------10*-----------|
|-------------------------|
|-------------------------|
|-------------------------|


Guitar 1
|------------------------------| played during entire solo
|-10-10-10-10--13-1313-13-1313-|
|-10-10-10-10--13-1313-13-1313-|
|-10-10-10-10--13-1313-13-1313-|
|-8--8--8--8---11-1111-11-1111-|
|--------------11-1111-11-1111-|
|
|Guitar 2 solo
|-------13--------------------------------------|
|-10/15----15\13------10-13-10-15-13--10h13p10--|
|-----------------------------------------------|
|-----------------------------------------------|
|-----------------------------------------------|
|-----------------------------------------------|

|-------13--------------------------------------|
|-10/15----15\13------10-13-10-15-13-10---------|
|---------------------------------------12-10---|
|-----------------------------------------------|
|-----------------------------------------------|
|-----------------------------------------------|

|------------/17-17-17-17-17--|
|-------13--------------------|
|----12-----------------------|
|-12--------------------------|
|-----------------------------|
|-----------------------------|

VERSE
Guitar 1
|--------------------------|
|--------------------------|
|-3-3-3--------------------|
|-3-3-3---6-6-6---3-3-2----|
|-1-1-1---6-6-6---3-3-2----|
|---------4-4-4---1-1-0----|
|
|Guitar 2
|---------8-8-8-|
|-6-6-6---------|
|---------------|
|---------------|
|---------------|
|---------------|


Guitar 1
|---------------------------------|
|---------------------------------|
|-6-6-6-6-6-6-6-6-6-6-6-6-6-6-6-6-|
|---------------------------------|
|-4-4-4-4-4-4-4-4-4-4-4-4-4-4-4-4-|
|---------------------------------|
|
|Guitar 2
|---------------------------------|
|---------------------------------| on the second go around
|-6-6-6-6-6-6-6-6-6-6-6-6-6-6-6-6-| this is taken up an octave
|---------------------------------|
|-4-4-4-4-4-4-4-4-4-4-4-4-4-4-4-4-|
|---------------------------------|
Tap to rate this tab
 
# A B C D E F G H I J K L M N O P Q R S T U V W X Y Z