Song name
# A B C D E F G H I J K L M N O P Q R S T U V W X Y Z

Toadies - Song I Hate tab

e---------------------------------------6-----6------5-----5-----3----3-------|
B-----6-----6-----5-----5-----6-----6------6-----6------6-----6----5------5---|
G--5-----5-----6-----6-----7-----7--------------------------------------------|
D-----------------------------------------------------------------------------|
A-----------------------------------------------------------------------------|
E-----------------------------------------------------------------------------|

e-1--------1---------1---------------------------|
B-----3---------3--------3-----------------------|
G--------------------------------7(slide up)-----|  Repeat
D------------------------------------------------|
A------------------------------------------------|
E------------------------------------------------|

Good Luck
Tap to rate this tab
 
# A B C D E F G H I J K L M N O P Q R S T U V W X Y Z