Song name
# A B C D E F G H I J K L M N O P Q R S T U V W X Y Z

Toadies - Quitter tab

Quitter
Toadies


INTRO & BRIDGE:

|-----------------------------------|
|-----------------------------------|
|---------------------------6-6-----|
|--6-0-0-6-0-0-6-0-0-6-0-0--6-6-----|
|--6-0-0-6-0-0-6-0-0-6-0-0--4-4-----|
|--4-0-0-4-0-0-4-0-0-4-0-0----------|

VERSES

E-----------------------------------|
B-----------------------------------|
G-----------------------------------|
D----7-7-7---5-5-5----9-9-9---------|
A----7-7-7---5-5-5----9-9-9---------|
E----5-5-5---3-3-3----7-7-7---------|
PM   . .     . .      . . 

CHORUS
E------------------------------------------------|
B------------------------------------------------|
G------------------------------------------------|
Dó-22222222--77777777--44444444--55555555--------|
A--22222222--77777777--44444444--55555555--------|
E--00000000--55555555--22222222--33333333--------|
Tap to rate this tab
# A B C D E F G H I J K L M N O P Q R S T U V W X Y Z