Song name
# A B C D E F G H I J K L M N O P Q R S T U V W X Y Z

Toadies - Heel tab

I remember learning this back in 2001. Turning into an old timer over here.
Can't remember who figured it out in the first place
e-----------------------------------------------|
B-----------------------------------------------|
G--5----4----3----4-----------------------------|
D--3----3----3----2-----------------------------|
A--3----4----5----2-----------------------------|
E-----------------------------------------------|
strum these nice and slow. Let the high note ring out. Lots of reverb.

e--8-8-8-8--8-8-8-8--6-6-6-6--7-7-7-7-----------|
B--6-6-6-6--6-6-6-6--6-6-6-6--5-5-5-5-----------|
G--5-5-5-5--6-6-6-6--7-7-7-7--4-4-4-4-----------|
D-----------------------------------------------|
A-----------------------------------------------|
E-----------------------------------------------|
don't ask me where i found these weird chords
this is the "HEEL!" part with a lot of rolling on the snare


e-----------------------------------------------|
B-----------------------------------------------|
G-----------------------------------------------|
D--10-10-10-10------------------------9-9-9-9---|
A--8--8--8--8--11-11-11-11--8-8-8-8---7-7-7-7---|
E--------------9--9--9--9---6-6-6-6-------------|
   2nd guitar part and sometimes they play together
e-----------------------------------------------|
B-----------------------------------------------|
G-----------------------------------------------|
D--10-10-10-10------------------------2-2-2-2---|
A--8--8--8--8--11-11-11-11--8-8-8-8---2-2-2-2---|
E--------------9--9--9--9---6-6-6-6---0-0-0-0---|

e-----------------------------------------------|
B-----------------------------------------------|
G-----------------------------------------------|
D-----------------------------------------------|
A-8-8-8-8---8-8-8-8--8-8-8-8--8-----------------|
E-6-6-6-6---6-6-6-6--6-6-6-6--6-0---------------|
 GOD I LOVE YOU
 YOURE SO PRETTAY
Tap to rate this tab
# A B C D E F G H I J K L M N O P Q R S T U V W X Y Z