Song name
# A B C D E F G H I J K L M N O P Q R S T U V W X Y Z

Toadies - Tyler tab

Guitar 1
Intro:

E|--------------------------|
B|--8-----8-----8-----8-----|
G|-----8-----8-----8-----8--|
D|--------------------------|
A|--------------------------|
E|--------------------------|


Verse:
E|----------------------------------------------------------|
B|--8-----8-----8-----8-----8-----8-----8-------------9-----|
G|-----8-----8-----8-----8-----7-----7-----7--7--7h8-----8--|
D|----------------------------------------------------------|
A|----------------------------------------------------------|
E|----------------------------------------------------------|


Chorus
E|---------------------------------------------------|
B|---------------------------------------------------|
G|--6--6--6--6--x--x--2--4--------------x--x--2--4---|
D|--6--6--6--6--x--x--2--4--6--6--6--6--x--x--2--4---|
A|--4--4--4--4--x--x--0--2--6--6--6--6--x--x--0--2---|
E|--------------------------4--4--4--4---------------|


Comments:  I wanted to contribute what I believed to be guitar 1.  There are 3 different 
guitars on this song, however I only had revisions for guitar 1.  For the intro use a 
chorus effect and moderate distortion on the chorus chords.
Tap to rate this tab
# A B C D E F G H I J K L M N O P Q R S T U V W X Y Z