Song name
# A B C D E F G H I J K L M N O P Q R S T U V W X Y Z

Toadies - Possum Kingdom tab

Toadies - 'Possum Kingdom'
Standard Tuning
Tabbed by jjhand, with help from Twisted Tool's tab

I just wanted to clear up the other tab available so the chords 
were accurate. This song has some interesting chord changes that 
are hard to follow but I tried to give a general rhythm. Please
rate or comment! Thanks!


Rhythm Verse Riff
     E7             E7              E7        A Asus4  
|---0--0--x--x-x--0--0--x--x-x--0--0--x---------------|
|---0--0--x--x-x--0--0--x--x-x--0--0--x----2--3p2-----|
|---1--1--x--x-x--1--1--x--x-x--1--1--x----2--2-------|
|---0--0--x--x-x--0--0--x--x-x--0--0--x----2--2-------|
|---2--2--x--x-x--2--2--x--x-x--2--2--x----0--0-------|
|---0--0--x--x-x--0--0--x--x-x--0--0--x----0--0-------|

|---0--0--x--x-x--0--0--x--x-x--0--0--x-----------------|
|---0--0--x--x-x--0--0--x--x-x--0--0--x----2--3p2--3p2--|
|---1--1--x--x-x--1--1--x--x-x--1--1--x----2--2----2----|
|---0--0--x--x-x--0--0--x--x-x--0--0--x----2--2----2----|
|---2--2--x--x-x--2--2--x--x-x--2--2--x----0--0----0----|
|---0--0--x--x-x--0--0--x--x-x--0--0--x----0--0----0----|



Main Lead riff (Rhythm keeps playing)
|----------------------------|------------------------------|
|----------------------------|------------------------------|
|-------9---7----------------|------9---7-------------------|
|----------------6__\/\/\/\/-|--------------7---6_~~~~~~///-|
|--9-------------------------|-9--9-------------------------|
|----------------------------|------------------------------|




Chorus
   F#m      A         E7       G#7       A        D/F#     
|--2-2-2-2--5-5-5-5-|-0-0-0-0--4-4-4-4-|-5-5-5-5-----------|
|--2-2-2-2--5-5-5-5-|-0-0-0-0--4-4-4-4-|-5-5-5-5--3-3-3-3--|
|--2-2-2-2--6-6-6-6-|-1-1-1-1--5-5-5-5-|-6-6-6-6--2-2-2-2--|
|--4-4-4-4--7-7-7-7-|-0-0-0-0--4-4-4-4-|-7-7-7-7--0-0-0-0--|
|--4-4-4-4--7-7-7-7-|-2-2-2-2--6-6-6-6-|-7-7-7-7--0-0-0-0--|
|--2-2-2-2--5-5-5-5-|-0-0-0-0--4-4-4-4-|-5-5-5-5--2-2-2-2--|

"I will treat you well, my sweet angel. So help me Jesus"


Play Verse, Prechorus, and Chorus again





End Chorus 2:
|--------------------------|---------------4-|
|--------------------------|---------------4-|
|-1--1--1--1--1--1--1--x-x-|-5-5-5-5-5-5-5-5-|
|-0--0--0--0--0--0--0--x-x-|-4-4-4-4-4-4-4-4-|
|-2--2--2--2--2--2--2--x-x-|-6-6-6-6-6-6-6-6-|
|-0--0--0--0--0--0--0--x-x-|-4-4-4-4-4-4-4-4-|
  All PM..................................



Bridge

        A      Ab7       Db7     F#m   Ab7     Db7
|-------5-------4--|--------------2--|------4----------|
|-------5-------4--|------0-------2--|------4-------0--|
|--6-6--6--5-5--5--|-4-4--4--2-2--2--|-5-5--5--4-4--4--|
|--7-7--7--4-4--4--|-3-3--3--4-4--4--|-4-4--4--3-3--3--|
|--7-7--7--6-6--6--|-4-4--4--4-4--4--|-6-6--6--4-4--4--|
|--5-5--5--4-4--4--|-x-x--x--2-2--2--|-4-4--4--x-x--x--|
   PM      PM        PM      PM        PM      PM

     "Give it up to me...       Give it up to me"



  Dm        G#7       Db7     B5
|------5---------4--|------------------|                              
|------6---------4--|------0-----------|
|-7-7--7----5-5--5--|-4-4--4--4-4-4-4--|
|-7-7--7----4-4--4--|-3-3--3--4-4-4-4--|
|-5-5--5----6-6--6--|-4-4--4--2-2-2-2--|
|-5-5--5----4-4--4--|-x-x--x-----------|

    "Do you want to be     my angel"
 


After Repeats, Riff Ends with:

  A        D/F#
|------------------|
|-2-2-2-2--3-3-3-3-|
|-2-2-2-2--2-2-2-2-|
|-2-2-2-2--0-0-0-0-|
|-0-0-0-0--0-0-0-0-|
|----------2-2-2-2-|

"So   help   me"



Lead Guitar then Divebombs low E string and gets feedback



Rhythm plays this with bass & repeats:

   4 beats           3 beats
e|-----------------|-------------|
B|-----------------|-------------|
G|-----------------|-------------|
D|-----------------|-------------|
A|-----------------|-------------|
E|-0-0-3-4-0-0-3-4-|-0-0-3-4-5-5-|

   4 beats
|-----------------|-----------------|
|-----------------|-----------------|
|-----------------|-----------------|
|-----------------|-----------------|
|-----------------|-----------------|
|-0-0-3-4-0-0-3-4-|-0-0-3-4-5-5-5-5-|

Lyrics:

  "Be my angel"

  "Do you wanna die?"


Play rhythm Verse Riff Again


Play Chorus


Play E7 chord and slow down gradually until one last strum rings out in song.
Tap to rate this tab
 
# A B C D E F G H I J K L M N O P Q R S T U V W X Y Z