Song name
# A B C D E F G H I J K L M N O P Q R S T U V W X Y Z

Toadies - Sweet Angel tab

W= wammy bar on note thats ringing

    E  E          E  E          E  E    D   D   Dsu
e|--0--0-----x-x--0--0-----x-x--0--0----2---3-r-2----------------------------
B|--0--0-----x-x--0--0-----x-x--0--0----3---3---3----------------------------
G|--1--1-----x-x--1--1-----x-x--1--1----2---2---2----------------------------
D|--2--2-----x-x--2--2-----x-x--2--2----0---0---0----------------------------
A|--2--2-----x-x--2--2-----x-x--2--2-----------------------------------------
E|--0--0-----x-x--0--0-----x-x--0--0-----------------------------------------



    E  E          E  E          E  E    D   Dsu D     Dsu D
e|--0--0-----x-x--0--0-----x-x--0--0----2---3-r-2-----3-r-2------------------
B|--0--0-----x-x--0--0-----x-x--0--0----3---3---3-----3---3------------------
G|--1--1-----x-x--1--1-----x-x--1--1----2---2---2-----2---2------------------
D|--2--2-----x-x--2--2-----x-x--2--2----0---0---0-----0---0------------------
A|--2--2-----x-x--2--2-----x-x--2--2-----------------------------------------
E|--0--0-----x-x--0--0-----x-x--0--0-----------------------------------------
                       w w w w                         w w w w w w w
e|---------------------------------------------------------------------------
B|---------------------------------------------------------------------------
G|----------9--7--------------------------9--7-------------------------------
D|----------------7-----------------------------7---6------------------------
A|--7---7-------------------------7---7--------------------------------------
E|---------------------------------------------------------------------------
Tap to rate this tab
# A B C D E F G H I J K L M N O P Q R S T U V W X Y Z