Song name
# A B C D E F G H I J K L M N O P Q R S T U V W X Y Z

Toadies - Little Sin tab

The TOADIES RoCk! like an MF... That being said, first of all I'm doin' this tab because
depressed that there are hardly any tabs for songs off of their "Hell Below/Stars
album. Secondly, i can't hardly stand reading the few tabs that are out there because 
aren't even f*ckin' close. So here's to all the TOAD-HEADS out there.

INTRO:
e|-----------------------------------------------|
B|-----------------------------------------------|
G|-6--------------x----x--6--------------x----x--|
D|-6---8--7--8-8--x----x--6---8--7--8-8--x----x--|
A|-4---8--7--8-8--x----x--4---8--7--8-8--x----x--|
E|-----6--5--6-6--x----x------6--5--6-6--x----x--|

VERSE:
e|-------------------------------|
B|-------------------------------|
G|-6--------------6--------------|
D|-6---8--7--8-8--6---8--7--8-8--|
A|-4---8--7--8-8--4---8--7--8-8--|
E|-----6--5--6-6------6--5--6-6--|   REPEAT

CHORUS:
e|----------------------------------------------------------|
B|----------------------------------------------------------|
G|----------------------------------------------------------|
D|-4-4--4----4---4-4--4----4---4-4--4----4---4---2---7---8^-|
A|-4-4--4--0-4-0-4-4--4--0-4-0-4-4--4--0-4-0-4---2---7---8^-|
E|-2-2--2--0-2-0-2-2--2--0-2-0-2-2--2--0-2-0-2---0---5---6^-|

BRIDGE:
e|---------------------------------------------------------------------------|  REPEAT, 
on the last one play
B|------------------------------------|  this leading leading into the solo--|
G|------------------------------------|          G|-8-7-6--------------------|
D|------5----5---5^------5----5---5^--|          D|--------------------------|
A|-0--0-5--0-5-0-5^-0--0-5--0-5-0-5^--|          A|--------------------------|
E|-0--0-3--0-3-0-3^-0--0-3--0-3-0-3^--|          E|--------------------------|

SOLO:
e|-----------------------------------------------------13-11---------------|
B|------9-11h13p11------------11-9---------11h13p11-9--------13-11h13p11-9-|
G|-8h10-------------8h10-8h10-------8h10-8---------------------------------|
D|-------------------------------------------------------------------------|
A|-------------------------------------------------------------------------|
E|-------------------------------------------------------------------------|

*the solo goes on for a few more seconds but i'm not good enough to play it and
i'm not even gonna try tabbing it. There's also another solo at the end of the song but 
can't
up with it, it's badass tho.
Tap to rate this tab
# A B C D E F G H I J K L M N O P Q R S T U V W X Y Z