Song name
# A B C D E F G H I J K L M N O P Q R S T U V W X Y Z

Toadies - Paper Dress tab

Toadies - Paper Dress
Tabbed By: Shawn Klapproth
Tuning - EADGBE
Shawnzy4@hotmail.com


e------------------------------|
B------------------------------|
G-------7------------7---------|
D-------0---0---0----0----0----|
A-5--5--5-5-5-5-5-5--5--5-5----|
E------------------------------|
P.M. -    - - - - -     - -


e-------------------       e-------|
B-------------------       B-------| occassionally does this
G-------------------       G-------|
D-------------------       D-----3-|
A-5-5-3-5-5-5-7-5---       A-0-3---|
E-------------------       E-------|

e------------------------------------------------------|
B-6-6-6-6-6--6-6-6-6-6--8-6----------------------------|
G-7-7-7-7-7--7-7-7-7-7--7-7----------------------------|
D-----------------------------    D--0\/\/\/\/---------|
A-8-8-8-8-8--8-8-8-8-8---------------------------------|
E------------------------------------------------------|


play this the first time through
e-----------------------------------------------------------------|
B-----------------------------------------------------------------|
G-7-7-7-7-7-7-7-7-3-3-3-3-3-3-3-3-5-5-5-5-5-5-5-5-3-3-3-3-3-3-3-3-|
D-0-0-0-0-0-0-0-0-0-0-0-0-0-0-0-0-0-0-0-0-0-0-0-0-3-3-3-3-3-3-3-3-|
A-5-5-5-5-5-5-5-5-1-1-1-1-1-1-1-1-3-3-3-3-3-3-3-3-1-1-1-1-1-1-1-1-|
E-----------------------------------------------------------------|
P.M. - - - - - - - - - - - - - - - - - - - - - -


play this the second time through
e-------------------------------------------------|
B-------------------------------------------------|
G-7-7-7-7-7-7-7-7-3-3-3-3-3-3-3-3-5-5-5-5-5-5-5-5-|
D-7-7-7-7-7-7-7-7-3-3-3-3-3-3-3-3-5-5-5-5-5-5-5-5-|
A-5-5-5-5-5-5-5-5-1-1-1-1-1-1-1-1-3-3-3-3-3-3-3-3-|
E-------------------------------------------------|

e-------------------------------|
B-------------------------------|
G-------------------------------|
D-------------------------------|
A-3--3-3-2--3--2--2--2--2--2--2-|
E-1--1-1-0--1--0--0--0--0--0--0-|
Tap to rate this tab
# A B C D E F G H I J K L M N O P Q R S T U V W X Y Z