Song name
# A B C D E F G H I J K L M N O P Q R S T U V W X Y Z

Toasters - Thrill Me Up tab

Help us improve GuitareTab! Take a short survey!
                     Thrill Me Up - The Toasters

Tabbed By Dday33   

Intro:
e|-------------------------------------------------------------|      
B|-------------------------------------------------------------|       
G|-------------0-2-----------0-------------0--2----------------|      
D|-3-3-3-3-3-3-----3-0-3-2-3-----3-3-3-3-3------3-0-3----------|     
A|----------------------------------------------------5-3------|      
E|--------------------------------------------------------5----|  

Chorus:
e|-1*-1*-1*-1*--6*-6*-6*-6*--8*---8*---8*--|	
B|-1*-1*-1*-1*--6*-6*-6*-6*--8*---8*---8*--|	
G|-2*-2*-2*-2*--7*-7*-7*-7*--9*---9*---9*--|	
D|-3*-3*-3*-3*--8*-8*-8*-8*--10*--10*--10*-|	
A|-----------------------------------------|	
E|-----------------------------------------|

Related for Thrill Me Up tab