Song name
# A B C D E F G H I J K L M N O P Q R S T U V W X Y Z

Toasters - Two Tone Army tab

Title: Two Tone Army
Artist: The Toasters
Album: Hard Band for Dead

Instrument: Guitar

Tabbed by: Republican Punk (punksk8brderdude@gmail.com)

Tuning: Standard (E A D G B E)

There was no guitar tab for this anywhere. so i needed to make one.

DS= Downstroke US= Upstroke


Intro:
|-3-3-3-3-3-3-3-3-3-3-3-3-3-3-3-3-3-|-3-3-3-3-----------------------||
|-3-3-3-3-3-3-3-3-3-3-3-3-3-3-3-3-3-|-3-3-3-3-----------------------||
|-4-4-4-4-4-5-5-5-5-4-4-4-4-5-5-5-5-|-4-4-4-4-10-10/-9-9------------||
|-5-5-5-5-5-5-5-5-5-5-5-5-5-5-5-5-5-|-5-5-5-5-10-10/-9-9------------||
|-5-5-5-5-5-3-3-3-3-5-5-5-5-3-3-3-3-|-5-5-5-5-8--8-/-7-7------------||
|-3-3-3-3-3---------3-3-3-3---------|-3-3-3-3-----------------------||
 DS-US                                horn part/ verse


Chorus
|-7-7-7-7----8--8--8--8--|------------------------------------------||
|-7-7-7-7----8--8--8--8--|------------------------------------------||
|-9-9-9-9----9--9--9--9--|-7-7-7-7-7-7-10-10-3-3--------------------||
|-9-9-9-9----10-10-10-10-|-7-7-7-7-7-7/10-10-3-3--------------------||
|-7-7-7-7----10-10-10-10-|-5-5-5-5-5-5/8--8--1-1--------------------||
|------------8--8--8--8--|------------------------------------------||
Tap to rate this tab
 
# A B C D E F G H I J K L M N O P Q R S T U V W X Y Z