Song name
# A B C D E F G H I J K L M N O P Q R S T U V W X Y Z

Toasters - Im Running Right Through The World tab

-------------------------------------------------------------------------------        
I'M RUNNING RIGHT THROUGH THE WORLD - The Toasters
-------------------------------------------------------------------------------
Tabbed by: Nikos Fertakis
Email: std02141@di.uoa.gr

Tuning: Standard (EADGBe)

Chords Used:


	 G   D	 C   F      A#  A   Ab  Cm
E||--3---5---3---1---|--6---5---4---3---|
B||--3---7---5---1---|--6---5---4---4---|
G||--4---7---5---2---|--7---6---5---5---|
D||--5---7---5---3---|--8---7---6---5---|
A||--5---5---3---3---|--8---7---6---3---|
E||--3---5---3---1---|--6---5---4---3---|



*Intro:

                                                                                                      
E||-----------------------|------------------------|-----------------------|-------------------|
B||-----------------2h-1--|---------1--------------|-----------------------|-------------------|
G||--0----3------0--------|------3-----3--0-----0--|------0-----0----------|-------------------|
D||-----------------------|------------------3-----|---------3-----3----2--|-------------------|
A||-----------------------|------------------------|-----------------------|----3--------------|
E||-----------------------|------------------------|-----------------------|-------------------|

E||-----------------------|------------------------||
B||-----------------2h-1--|---------1--------------||
G||--0----3------0--------|------3-----3--0-----0--||
D||-----------------------|------------------3-----||
A||-----------------------|------------------------||
E||-----------------------|------------------------||

G       D   C   D C
G       D   C   G F
G       D   C   D C
G       D   C   G F    

*Verse:

G
Show me the land of the midnight sun

That's one place that I ain't never gone
A#
But you won't get far
       A             Ab   
If you stay where you are

G
Baby can you hear me, can you understand

I know this planet like the back of my hand
               A#
And there's no time to waste
             A           Ab
To find that last secret place

*Bridge:

Cm
I'm on a ticket on that mystery train
        G
Running down that lonesome track
Cm
If I had to do it I would do it again
          D
And there ain't no turning back

*Chorus:

G           D                 C        D C
I'm running right through the world...
G           D                 C        G F
I'm running right through the world...
G           D                 C        D C
I'm running right through the world...
G           D                 C        G F
I'm running right through the world...

*Verse:

I always said I'd explain in a letter
I changed my mind 'cos I thought it was better
If I left out the part where the teardrops start
Long distance romance on a mobile phone
No squeezing blood from a rolling stone
There's no time to say
When life's rolled away

*Bridge:

Too many wrongs don't make a right as everybody knows
If you wake up cryin' in the middle of the night
But that's just the way it goes

*Chorus:

I'm running right through the world...
I'm running right through the world...
I'm running right through the world...
I'm running right through the world...

*Verse:
Lay it on me Sledge... 
(Sax Solo)

*Bridge:

I'm on a ticket on that mystery train
Running down that endless track
If I had to do it I would do it again
And there ain't no turning back

*Chorus:

I'm running right through the world...
I'm running right through the world...
I'm running right through the world...
I'm running right through the world...

I'm running right through the world...
I'm running right through the world...
Tap to rate this tab
# A B C D E F G H I J K L M N O P Q R S T U V W X Y Z