Song name
# A B C D E F G H I J K L M N O P Q R S T U V W X Y Z

Toasters - Youre Gonna Pay tab

this is my first tab so if its wrong at all tell me...lol i doubt it tho
*=let it ring for a bit
()= im not sure you can do if u want put palm mute it

INTRO: (0-11 seconds into song)

e:--------------------------------xx----------------------------------------|
B:--------------------------------xx----------------------------------------|
G:2-5-2-0-2-0-2*--2-5-2-0-2-0-22-(22)---2-5-2-0-2-0-22-2-55-77-9*--1010-99--|
D:--------------------------------xx----------------------------------------|
A:--------------------------------xx----------------------------------------|
E:--------------------------------xx----------------------------------------|

this might still b part of intro: (12-33 sec.)                      then

e:--------------------------------------------------------------|----------|
B:--------------------------------------------------------------|----------|
G:2-5-2-0-----------2-5-2-0----------2-5-2-0--------------------|x2--------|
D:--------2---0-------------2---0*-----------2---0---------33-22|----------|
A:----------3---0*------------3----------------3---0*-----------|----------|
E:--------------------------------------------------- 3-4-5-----|----------|


then the verse: Your gonna pay......
Tap to rate this tab
 
# A B C D E F G H I J K L M N O P Q R S T U V W X Y Z