Tobacco - Constellation Dirtbike Head tab

It's a very stripped song on guitar unless you have some cool effects. Pretty fun though.

http://www.anticon.com/index.php?section=roster&js=yes

Verse/Chorus Bass Guitar 1:
G-----------------------------------------------------------------------|
D-----------------------------------------------------------------------|
A----4-6-6-6-6 slide down-4-6-6-6-6 slide down-4-6-6-6-6 slide down-----|
E-----------------------------------------------------------------------|


G-----------------------8-6-|
D---------------------------|
A----4-6-6-6-6 slide down---|
E---------------------------|   X 4

Chorus Guitar 1:
e-------------------------------------------------------------------------|
b-------------------------------------------------------------------------|
G----6-8-8-8-8 slide down-6-8-8-8-8 slide down-6-8-8-8-8 slide down-------|
D-------------------------------------------------------------------------|
A----4-6-6-6-6 slide down-4-6-6-6-6 slide down-4-6-6-6-6 slide down-------|
E-------------------------------------------------------------------------|

e----------------------------------|
b----------------------------------|
G----6-8-8-8-8 slide down-8-6------|
D----------------------------------|
A----4-6-6-6-6 slide down----------|
E----------------------------------|

Chorus Guitar 2:
e---------18--14------------------------------------------------|
b---------------------16----------------------------------------|
G-------------------------15--13--11------13--12------13--12----|
D----13----------13-------------------13----------13------------|
A---------------------------------------------------------------|
E---------------------------------------------------------------|

Bridge:
e-----------------------------------------------|
b-----------------------------------------------|
G-----------------------------------------------|
D-----------------------6b8-8/11-11-11b13-------|
A----2b4---4b6-6-6b4----------------------------|
E-----------------------------------------------|

e-----------------------------------------------------|
b-----------------------------------------------------|
G--------------------------13b15-15/18-18-18b20-------|
D----11---11b13-13-13b11------------------------------|
A-----------------------------------------------------|
E-----------------------------------------------------|

Badass.
Tap to rate this tab
 
# A B C D E F G H I J K L M N O P Q R S T U V W X Y Z