Song name
# A B C D E F G H I J K L M N O P Q R S T U V W X Y Z

Tobuscus - Tobys tab

You're going to do it his way baby.  and he's lazy, so you're not going to even tune it 
right.  you're gonna shove a capo on there, which is going to throw you off when you get 
to the solo. I forgive you in advance. Lets do it, giggidy

e|--------%-------------$@
B|----------------------$@#)
G|--------$-------------$@
D|-----0-5#*!       **--$@ shut up!
A|----------------------$@)
E|-3/5------------------$@!*

Tuning: E A D G B E       (  <-- Normal Tuning  Toby's Way  )
CAPO #1

Tabs Relative to CAPO

e|-------------------------------------|-----------------------------------|
B|-------------------------------------|-----------------------------------|
G|-------------------------------------|-----------------------------------|
D|-----0-5/7---------------3p0---------|-----0-5/7---5--5-5/7-7--7---------|
A|-------------7\5---5-5-------3p0-----|-------------3--3-3/5-5--5---------|
E|-3/5-------0-------------------------|-3/5-------0-----------------------|

e|-------------------------------------|-----------------------------------|
B|-------------------------------------|-----------------------------------|
G|-------------------------------------|-----------------------------------|
D|-----0-5/7---------------3p0---------|-----------------3-----------------|
A|-------------7\5---5-5-------3p0-----|-----------0-3-5----3--3/5---------|
E|-3/5-------0-------------------------|-3/5-0-3-5-------------------------|

SOLO:

NOT RELATIVE TO CAPO (remember not to get thrown off when you get here)

E|--10p8----8-----------------------|--10p8----8----8-10/12-10----10--|
B|-------10---10-8-10-11-10-8-10----|-------10---10------------13-----|
G|-------------------------------7--|---------------------------------|
D|----------------------------------|---------------------------------|
A|----------------------------------|---------------------------------|
D|----------------------------------|---------------------------------|



E|--10p8----8-----------------------|---------------------------------|
B|-------10---10-8-10-11-10-8-10----|--11-10-8------------------------|
G|-------------------------------7--|----------10-9----10-9-----------|
D|----------------------------------|---------------10------10-10/12--|
A|----------------------------------|---------------------------------|
D|----------------------------------|---------------------------------|

Tuning: E A D G B E       (  <-- Still Normal Tuning, has not changed  )
CAPO still at #1

Tabs Relative to CAPO

e|-------------------------------------|-----------------------------------|
B|-------------------------------------|-----------------------------------|
G|-------------------------------------|-----------------------------------|
D|-----0-5/7---------------3p0---------|-----0-5/7---5--5-5/7-7--7---------|
A|-------------7\5---5-5-------3p0-----|-------------3--3-3/5-5--5---------|
E|-3/5-------0-------------------------|-3/5-------0-----------------------|

e|-------------------------------------|-----------------------------------|
B|-------------------------------------|-----------------------------------|
G|-------------------------------------|-----------------------------------|
D|-----0-5/7---------------3p0---------|-----------------3-----------------|
A|-------------7\5---5-5-------3p0-----|-----------0-3-5----3--3/5---------|
E|-3/5-------0-------------------------|-3/5-0-3-5-------------------------|

ahhhh, dig it.  but yeah dude, it's pretty sweeet. because people are always like "do 
you have tabs? do you have tabs I can see? do you have any tabs?"

NOW YOU DO TOBUSCUS.  Bam! Slapped on the internet. now all the fans know how to play 
your theme song. All of them, all millions of them. Yes.  Good seeing you, have an 
excellent day Internet.  Dah-da-du-du-da-da-du-du-Do Subscribe!
Tap to rate this tab
# A B C D E F G H I J K L M N O P Q R S T U V W X Y Z