Song name
# A B C D E F G H I J K L M N O P Q R S T U V W X Y Z

Tobuscus - Safety Torch tab

Artist: Tobuscus
Song: Safety Torch
Tab by: Josh Ramli

Standard Tuning (EADGBE)
High gain,treble,and middle (heavy distortion)

      | Intro (palm muted)             |                |(palm muted)
------|---------------------------------------------------------------------|
------|---------------------------------------------------------------------|
------|-----3-3-5-5-3-3-----3-3-5-5-3-3---------------------3-3-5-5-3-3-----|
------|-3-3-------------3-3------------8-8-8-8-6-66-66/8-3-3------------3-3-|
------|--------------------------------8-8-8-8-6-66-66/8--------------------|
------|--------------------------------6-6-6-6-4-44-44/6--------------------|

                                        | Chorus
------|-----------------------------------------------------------------------|
------|-----------------------------------------------------------------------|
------|-3-3-6-6-3-3---3-3-5-5-3-3----3-6--------------------------------------|
------|------------3-3------------3-3----8-x-8--88\-6-8-x-8--88\-6-8-x-8--88\-|
------|----------------------------------8-x-8--88\-6-8-x-8--88\-6-8-x-8--88\-|
------|----------------------------------6-x-6--66\-4-6-x-6--66\-4-6-x-6--66\-|


------|------------------|
------|------------------|
------|------------------|
------|-6-8-x-8--8-8-66-8|   "But my house is on fire" (timmy)
------|-6-8-x-8--8-8-66-8|
------|-4-6-x-6--6-6-44-6|

      |Middle 8 (palm muted)                       | Chorus
------|----------------------------------------------------------------------|
------|----------------------------------------------------------------------|
------|----------------------------------------------------------------------|
------|---------------------------------------------8-x-8--88\-6-8-x-8-88\-6-|
------|-88888888333333334444444466666666666666--7---8-x-8--88\-6-8-x-8-88\-6-|
------|-66666666444444442222222244444444444444--5---6-x-6--66\-4-6-x-6-66\-4-|



------|------------------------------|
------|------------------------------|
------|------------------------------|
------|-8-x-8--88\-6-8-x-8--8-8-66-8-|  END
------|-8-x-8--88\-6-8-x-8--8-8-66-8-|
------|-6-x-6--66\-4-6-x-6--6-6-44-6-|


That is my first tab so I hope it helps you out. Thanks
Tap to rate this tab
 
# A B C D E F G H I J K L M N O P Q R S T U V W X Y Z