Song name
# A B C D E F G H I J K L M N O P Q R S T U V W X Y Z

Tobuscus - Toby Theme tab

s: slide
h: hammer-on
p: pull-off


e|--------------------------------------------------|
B|--------------------------------------------------|
G|--------------------------------------------------|
D|--3ss5----5--7--5-----------3p0-------------------|
A|--3ss5--5----------7p5-5-5------3p0---------------|
D|--3ss5--------------------------------------------|

e|--------------------------------------------------|
B|--------------------------------------------------|
G|--------------------------------------------------|
D|--3ss5----5--7--5--5-5-5s7------------------------|
A|--3ss5--5----------3-3-3s5------------------------|
D|--3ss5--------------------------------------------|

e|---------------------------------------------------------------|
B|---------------------------------------------------------------|
G|---------------------------------------------------------------|
D|--3ss5----5--7--5-----------3p0---------------------3-5-3------|
A|--3ss5--5----------7p5-5-5------3p0-------------3-5-------3-3h5|
D|--3ss5--------------------------------3s5-0-3-5----------------|

Solo
e|-10p8----8----------------------|-10p8----8----8-10-12-10-8-10---|
B|------10---10-8-10-11-10-8-10---|------10---10-------------------|
G|------------------------------7-|--------------------------------|
D|--------------------------------|--------------------------------|
A|--------------------------------|--------------------------------|
D|--------------------------------|--------------------------------|

e|-10p8----8----------------------|--------------------------------|
B|------10---10-8-10-11-10-8-10---|-11-10-8------------------------|
G|------------------------------7-|---------10-9----10-9-----------|
D|--------------------------------|--------------10-------10s12----|
A|--------------------------------|--------------------------------|
D|--------------------------------|--------------------------------|

e|--------------------------------------------------|
B|--------------------------------------------------|
G|--------------------------------------------------|
D|--3ss5----5--7--5-----------3p0-------------------|
A|--3ss5--5----------7p5-5-5------3p0---------------|
D|--3ss5--------------------------------------------|

e|--------------------------------------------------|
B|--------------------------------------------------|
G|--------------------------------------------------|
D|--3ss5----5--7--5--5-5-5s7------------------------|
A|--3ss5--5----------3-3-3s5------------------------|
D|--3ss5--------------------------------------------|

e|---------------------------------------------------------------|
B|---------------------------------------------------------------|
G|---------------------------------------------------------------|
D|--3ss5----5--7--5-----------3p0---------------------3-5-3------|
A|--3ss5--5----------7p5-5-5------3p0-------------3-5-------3-3h5|
D|--3ss5--------------------------------3s5-0-3-5----------------|


Hope you enjoy it!
Tap to rate this tab
 
# A B C D E F G H I J K L M N O P Q R S T U V W X Y Z