Song name
# A B C D E F G H I J K L M N O P Q R S T U V W X Y Z

Toby Keith - Boogie Woogie tab

E-----------------------------------------------------------------------------|
A-----------------------------------------------------------------------------|
D-----------------------------------------------------------------------------|
G--------------0------------------------0----------------------2--4-----------|
B--------2--4-----4--2------------2--4-------4--2-------0---4----------4------|
E--0--4------------------4--0--4--------------------4-------------------------|

A-----------------------------------------------------------------------------|
B-----------------------------------------------------------------------------|
D-----------------------------------------------------------------------------|
G---------------0--------------------------0-1--2-0---------------------------|
B--------2--4------4--2------------0-1-2-4-----------4-3-2-0------------------|
E--0--4-------------------4--2--4-----------------------------4--2------------|
Tap to rate this tab
# A B C D E F G H I J K L M N O P Q R S T U V W X Y Z