Song name
# A B C D E F G H I J K L M N O P Q R S T U V W X Y Z

Toby Keith - God Love Her tab

God Love Her Solo
Artist: Toby Keith
Album: That Don't Make Me A Bad Guy

P=pulloff

E-----10-10--10-8--6---8-8-8-8-6--8--10--10--10--8--6-8-8/13-13-13-13-13-13---|
B-----------------------------------------------------------------------------|
G-----------------------------------------------------------------------------|
D-----------------------------------------------------------------------------|
A-----------------------------------------------------------------------------|
E-----------------------------------------------------------------------------|

E-10----10---6--8--6\3-------------------------------------------------------|
B----------------------------------------------------------------------------|
G----------------------------------------------------------------------------|
D----------------------------------------------------------------------------|
A----------------------------------------------------------------------------|
E----------------------------------------------------------------------------|


             I'm not sure about the next part but it may go something like this

E--6p5-----6p5---6p5-----------10p8-----10p8------10p8---------------------------|
B------6-------6-----6-----------------10-------10---------10--------------------|
G--------------------------------------------------------------------------------|
D--------------------------------------------------------------------------------|
A--------------------------------------------------------------------------------|
E--------------------------------------------------------------------------------|

                            or if u have a capo on the 3rd fret

E---7-7-7--5--3---5-5-5-5-3--5--7--7--7--5--3--7-7/10-10-10-10-10-10--7-|
B-----------------------------------------------------------------------|
G-----------------------------------------------------------------------|
D-----------------------------------------------------------------------|
A-----------------------------------------------------------------------|
E-----------------------------------------------------------------------|

E----7---3--5--3p0--------------------------------------------------------|
B-------------------------------------------------------------------------|
G-------------------------------------------------------------------------|
D-------------------------------------------------------------------------|
A-------------------------------------------------------------------------|
E-------------------------------------------------------------------------|

E--3p2-----3p2-----3p2-------------7p5------7p5----7p5--------------------|
B------3-------3-------3---------------7--------7------7------------------|
G-------------------------------------------------------------------------|
D-------------------------------------------------------------------------|
A-------------------------------------------------------------------------|
E-------------------------------------------------------------------------|
Tap to rate this tab
 
# A B C D E F G H I J K L M N O P Q R S T U V W X Y Z