Song name
# A B C D E F G H I J K L M N O P Q R S T U V W X Y Z

Toby Keith - Whos That Man tab

e---------------------------------------------------------------------|
B----------------------------------------------15-14------------------|
G---14--------------14---14--------------14---------------------------|
D------11-12-11--12---------11-12-11--12------------------------------|
A---------------------------------------------------------------------|
E---------------------------------------------------------------------|

e---------------------------------------------------------------------|
B---------------------------------------------------------------------|
G---14--------------14---14--------------14---------------------------|
D------11-12-11--12---------11-12-11--12------------------------------|
A---------------------------------------------------------------------|
E---------------------------------------------------------------------|

That's my guess. Feel free to completely trash it.
Tap to rate this tab
 
# A B C D E F G H I J K L M N O P Q R S T U V W X Y Z