Toby Keith - You Shouldnt Kiss Me Like This tab

Standard E Tuning

Legend:
/=Slide into from below/Out to above
\=Slide out to below/Into from above
p=pull-off
h=hammer-on
b=full bend
pb=prebend
r=release bend

    *hold*
e--------------------------------------------------------------------------|
B--/12---\----12----12h13-12---\----12----12h13----------------------------|
G--/12---\-------12--------------------12-------14---12--12-14pbr-p12-14---|
D----------------*let ring*------------*let ring*--------------------------|
A--------------------------------------------------------------------------|
E--------------------------------------------------------------------------|


e------------------------------------------------------|
B------------------------------------------------------|
G-12-12-12\11-11-11-11\9-9-9-9\7-7-7-7h9p9-------------|
D------------------------------------------9-----------|
A------------------------------------------------------|
E------------------------------------------------------|


e-------------------------------------------------13-----------------------|
B-----------------12-13-13b----------11-13p11-13b----13br---11-13p11-10----|
G-/12---\--/12-14--------------12-14---------------------------------------|
D--------------------------------------------------------------------------|
A--------------------------------------------------------------------------|
E--------------------------------------------------------------------------|

And it goes back into the chorus from there.

Cheers everybody, hope this tab helped!

Tab was done by ear by me.

~explorer58
Tap to rate this tab
 
# A B C D E F G H I J K L M N O P Q R S T U V W X Y Z