Song name
# A B C D E F G H I J K L M N O P Q R S T U V W X Y Z

Toby Keith - How Do You Like Me Now tab

-x-x-----x---x-x----------------x-x-----x---x-x-----------------|
-x-x-6\8-x-5-x-x-5h6-6-6-6-6p5-x-x-----x-5-x-x-5h6-6-6-6-6p5----|
-x-x-7\9-x-5-x-x-5---5-5-5-5p5-x-x-----x-5-x-x-5h7-7-7-7-7p5----|
-x-x-5\7-x-5-x-x-5h7-7-7-7-7p5-x-x-5---x-5-x-x-5h7-7-7-7-7p5----|
-x-x-----x---x-x----------------x-x-5h7-x---x-x-----------------|
-x-x-----x---x-x----------------x-x-----x---x-x-----------------|

                                                                                         
                            (G)
-x-x-----x---x-x------8-8-8-8---x-x-----x---x-x----------------3----|
-x-x-6\8-x-5-x-x-5h6-6-6-6-6p5-x-x-----x-5-x-x-5h6-6-6-6-6p5-3------|
-x-x-7\9-x-5-x-x-5---5-5-5-5p5-x-x-----x-5-x-x-5h7-7-7-7-7p5-0------|
-x-x-5\7-x-5-x-x-5h7-7-7-7-7p5-x-x-5---x-5-x-x-5h7-7-7-7-7p5-0------|
-x-x-----x---x-x----------------x-x-5h7-x---x-x----------------2----|
-x-x-----x---x-x----------------x-x-----x---x-x----------------3----|

Sorry if the numbers aren't perfectly straight I am new to this and I couldn't figure 
out how to make them perfectly straight.
Tap to rate this tab
# A B C D E F G H I J K L M N O P Q R S T U V W X Y Z