Song name
# A B C D E F G H I J K L M N O P Q R S T U V W X Y Z

Toby Keith - Courtesy Of The Red White And Blue tab

Tuning: Standard (e-B-G-D-A-E)

I am sure not many people are going to look at this tab but for those of you who want 
here you go! It's pretty easy

/ slide up
\ slide down
~ vibrato
p pull-off
h hammer-on
b bend (the notes in ( ) after a b is what you bend the note to sound like)
r release
x play with your fingers NOT pressed down on the fret board all the way


e|----------------------------------10----9----7------------------------|
B|-------------------------------/7----/7---/7-------------------12-----|
G|---------------7-x-----------------------------9b(11)-7-9b(11)----11--|
D|---------------7-x-----------7----------------------------------------|
A|-5-(5)-7-5-7/9--------------------------------------------------------|
E|-------------------9\7p5-7/9------------------------------------------|
                                  ^    ^    ^
  (The sliding on the second string can be started at the 5th fret)


e|----------------------------------------|
B|---------------------------------10-----|
G|-7-9b(9.5)r9-7-9b(11)r9-7-9b(11)----11--|
D|----------------------------------------|
A|----------------------------------------|
E|----------------------------------------|


e|------------------------------------|
B|------------------------------------|
G|-7-9b(11)r9-6b(7)r6--------------2--|
D|--------------------7b(9)r7-2----2--|
A|------------------------------2~-0--|
E|------------------------------------|

Please rate this tab.
Not that it really matters but if you want to email me it's Ninoblink1@aol.com
Tap to rate this tab
 
# A B C D E F G H I J K L M N O P Q R S T U V W X Y Z