Song name
# A B C D E F G H I J K L M N O P Q R S T U V W X Y Z

Toby Keith - Whisky Girl tab

This is the way i found it to sound the best but you can also play it with a capo on the 
fret or just power chords such as shown below

PM - palm mute(where dots are under note)
~  - let ring

e-------------------------|
b---7--7-----------7------|
g---8--8--6--6--6--8---4~-|
d---8--8--6--6--6--8---4~-|
a---6--6--6--6--6--6---2~-|
E---------7--7--7---------|
 PM .        .

Capo Version

e-------------------------|
b---7--7-----------7------|
g---8--8--6--6--6--8------|
d---8--8--6--6--6--8---9~-| Pretty much the same but you just move the
a---6--6--6--6--6--6---9~-| power chord down to the Low E on the 7th fret.
E---------7--7--7------7~-|
 PM .        .

Power Chord Version

e-------------------------         e-------------------------|
b-------------------------         b-------------------------|
g---8--8--6--6--6--8---4~-         g---8--8--6--6--6--8------|
d---8--8--6--6--6--8---4~-         d---8--8--6--6--6--8---9~-|
a---6--6--6--6--6--6---2~-  or     a---6--6--6--6--6--6---9~-|
E-------------------------         E----------------------7~-|
 PM .        .                      PM .        .

ok and that's my tab so i hope you found what you were lookin for and please give some 
to see how i did. thanks
Tap to rate this tab
 
# A B C D E F G H I J K L M N O P Q R S T U V W X Y Z