Song name
# A B C D E F G H I J K L M N O P Q R S T U V W X Y Z

Toby Lightman - Holding A Heart tab

First tab, apologies for any mistakes :)And the timing for the singing in this song is 
quite tricky but the tab should give the right timing so good luck :)

Intro: (x1)

E------------------------------------------------------------------|
B------------------------------------------------------------------|
G------------------------------------------------------------------|
D---0---0---0---0---0---0---0---0---0---0---0---0---0---0---0---0--|
A-2---2---2---2---0---0---0---0---0---0---0---0--------------------|
E--------------------------------------------------3---3---3---3---|
                                                           ^
                                                    Start singing here

Verse 1:

E------------------------------------------------------------------|
B------------------------------------------------------------------|
G------------------------------------------------------------------|
D---0---0---0---0---0---0---0---0---0---0---0---0---0---0---0---0--|
A-2---2---2---2---0---0---0---0---0---0---0---0--------------------|
E--------------------------------------------------3---3---3---3---|

E------------------------------------------------------------------|
B------------------------------------------------------------------|
G------------------------------------------------------------------|
D---0---0---0---0---0---0---0---0---0---0---0---0---0---0---0---0--|
A-2---2---2---2---0---0---0---0---0---0---0---0--------------------|
E-------------------------------------------------3---3---3---3----|

Pre-chorus:

E------------------------------------------------------------------|
B------------------------------------------------------------------|
G------------------------------------------------------------------|
D---0---0---0---0---0---0---0---0---0---0---0---0---0---0---0---0--|
A---------------------------------2---2---2---2---2---2---2---2----|
E-3---3---3---3---3---3---3---3------------------------------------|

E------------------------------------------------------------------|
B------------------------------------------------------------------|
G------------------------------------------------------------------|
D---0---0---0---0---0---0---0---0---2---2---2---2---2---2---2---2--|
A-----------------2---2---2---2---0---0---0---0---0---0---0---0----|
E-3---3---3---3----------------------------------------------------|

Chorus:

E------------------------------------------------------------------|
B------------------------------------------------------------------|
G------------------------------------------------------------------|
D---0---0---0---0---4---4---4---4---2---2---2---2---0---0---0---0--|
A-----------------5---5---5---5---0---0---0---0---2---2---2---2----|
E-3---3---3---3----------------------------------------------------|

E------------------------------------------------------------------|
B------------------------------------------------------------------|
G------------------------------------------------------------------|
D---0---0---0---0---4---4---4---4---2---2---2---2---2---2---2---2--|
A-----------------5---5---5---5---0---0---0---0---0---0---0---0----|
E-3---3---3---3----------------------------------------------------|

E------------------------------------------------------------------|
B------------------------------------------------------------------|
G------------------------------------------------------------------|
D---0---0---0---0---4---4---4---4---2---2---2---2---0---0---0---0--|
A-----------------5---5---5---5---0---0---0---0---2---2---2---2----|
E-3---3---3---3----------------------------------------------------|

E------------------------------------------------------------------|
B------------------------------------------------------------------|
G------------------------------------------------------------------|
D---0---0---0---0---4---4---4---4---2---2---2---2---2---2---2---2--|
A-----------------5---5---5---5---0---0---0---0---0---0---0---0----|
E-3---3---3---3----------------------------------------------------|

Verse 2:

E------------------------------------------------------------------|
B------------------------------------------------------------------|
G------------------------------------------------------------------|
D---0---0---0---0---0---0---0---0---0---0---0---0---0---0---0---0--|
A-2---2---2---2---0---0---0---0---0---0---0---0--------------------|
E--------------------------------------------------3---3---3---3---|

E------------------------------------------------------------------|
B------------------------------------------------------------------|
G------------------------------------------------------------------|
D---0---0---0---0---0---0---0---0---0---0---0---0---0---0---0---0--|
A-2---2---2---2---0---0---0---0---0---0---0---0--------------------|
E--------------------------------------------------3---3---3---3---|

Pre-chorus:

E------------------------------------------------------------------|
B------------------------------------------------------------------|
G------------------------------------------------------------------|
D---0---0---0---0---0---0---0---0---0---0---0---0---0---0---0---0--|
A---------------------------------2---2---2---2---2---2---2---2----|
E-3---3---3---3---3---3---3---3------------------------------------|

E------------------------------------------------------------------|
B------------------------------------------------------------------|
G------------------------------------------------------------------|
D---0---0---0---0---0---0---0---0---2---2---2---2---2---2---2---2--|
A-----------------2---2---2---2---0---0---0---0---0---0---0---0----|
E-3---3---3---3----------------------------------------------------|


Chorus:

E------------------------------------------------------------------|
B------------------------------------------------------------------|
G------------------------------------------------------------------|
D---0---0---0---0---4---4---4---4---2---2---2---2---0---0---0---0--|
A-----------------5---5---5---5---0---0---0---0---2---2---2---2----|
E-3---3---3---3----------------------------------------------------|

E------------------------------------------------------------------|
B------------------------------------------------------------------|
G------------------------------------------------------------------|
D---0---0---0---0---4---4---4---4---2---2---2---2---2---2---2---2--|
A-----------------5---5---5---5---0---0---0---0---0---0---0---0----|
E-3---3---3---3----------------------------------------------------|

E------------------------------------------------------------------|
B------------------------------------------------------------------|
G------------------------------------------------------------------|
D---0---0---0---0---4---4---4---4---2---2---2---2---0---0---0---0--|
A-----------------5---5---5---5---0---0---0---0---2---2---2---2----|
E-3---3---3---3----------------------------------------------------|

E------------------------------------------------------------------|
B------------------------------------------------------------------|
G------------------------------------------------------------------|
D---0---0---0---0---4---4---4---4---2---2---2---2---2---2---2---2--|
A-----------------5---5---5---5---0---0---0---0---0---0---0---0----|
E-3---3---3---3----------------------------------------------------|

Bridge:

E------------------------------------------------------------------|
B------------------------------------------------------------------|
G------------------------------------------------------------------|
D---0---0---0---0---4---4---4---4---2---2---2---2---2---2---2---2--|
A-----------------5---5---5---5---0---0---0---0---0---0---0---0----|
E-3---3---3---3----------------------------------------------------|

E------------------------------------------------------------------|
B------------------------------------------------------------------|
G------------------------------------------------------------------|
D---0---0---0---0---4---4---4---4---2---2---2---2---2---2---2---2--|
A-2---2---2---2---5---5---5---5---0---0---0---0---0---0---0---0----|
E------------------------------------------------------------------|

E------------------------------------------------------------------|
B------------------------------------------------------------------|
G------------------------------------------------------------------|
D---0---0---0---0---4---4---4---4---2---2---2---2---2---2---2---2--|
A-----------------5---5---5---5---0---0---0---0---0---0---0---0----|
E-3---3---3---3----------------------------------------------------|

E------------------------------------------------------------------|
B------------------------------------------------------------------|
G------------------------------------------------------------------|
D---0---0---0---0---4---4---4---4---2---2---2---2---2---2---2---2--|
A-2---2---2---2---5---5---5---5---0---0---0---0---0---0---0---0----|
E------------------------------------------------------------------|

E------------------------------------------------------------------|
B------------------------------------------------------------------|
G------------------------------------------------------------------|
D---0------0------2------------------------------------------------|
A----------2------0------------------------------------------------|
E---3--------------------------------------------------------------|

Chorus:

E------------------------------------------------------------------|
B------------------------------------------------------------------|
G------------------------------------------------------------------|
D---0---0---0---0---4---4---4---4---2---2---2---2---0---0---0---0--|
A-----------------5---5---5---5---0---0---0---0---2---2---2---2----|
E-3---3---3---3----------------------------------------------------|

E------------------------------------------------------------------|
B------------------------------------------------------------------|
G------------------------------------------------------------------|
D---0---0---0---0---4---4---4---4---2---2---2---2---2---2---2---2--|
A-----------------5---5---5---5---0---0---0---0---0---0---0---0----|
E-3---3---3---3----------------------------------------------------|

E------------------------------------------------------------------|
B------------------------------------------------------------------|
G------------------------------------------------------------------|
D---0---0---0---0---4---4---4---4---2---2---2---2---0---0---0---0--|
A-----------------5---5---5---5---0---0---0---0---2---2---2---2----|
E-3---3---3---3----------------------------------------------------|

E------------------------------------------------------------------|
B------------------------------------------------------------------|
G------------------------------------------------------------------|
D---0---0---0---0---4---4---4---4---2---2---2---2---2---2---2---2--|  x4
A-----------------5---5---5---5---0---0---0---0---0---0---0---0----|
E-3---3---3---3----------------------------------------------------|

Hope you enjoyed it!
Tap to rate this tab
# A B C D E F G H I J K L M N O P Q R S T U V W X Y Z