Song name
# A B C D E F G H I J K L M N O P Q R S T U V W X Y Z

Toby Lightman - Front Row tab

Artist: Toby Lightman
Song: Front Row
Tabbed From: VH1 acoustic version (http://www.vh1.com/artists/az/lightman_toby/videos.jhtml)
Tabbed By: Jo Lefebure (whipy@hotmail.com)

(1) Intro: only played once

e|--7~~--7~~--8-7-7~~--|
b|--8~~--8~~--7---8~~--|
g|--9~~--9~~--9---9~~--|
d|--9~~--7~~--7---7~~--|
a|--7~~----------------|
e|--7~~----------------|

(2) Rest of song:

e|--7----7----0----x--|
b|--8----8----1----3--|
g|--9----9----2----x--|
d|--9----7----2----4--|
a|--7---------0----x--|
e|--7--------------2--|
Tap to rate this tab
# A B C D E F G H I J K L M N O P Q R S T U V W X Y Z