Song name
# A B C D E F G H I J K L M N O P Q R S T U V W X Y Z

Toby Lightman - Leave It Inside tab

Artist: Toby Lightman
Song: Leave It Inside
Tabbed From: VH1 acoustic version (http://www.vh1.com/artists/az/lightman_toby/videos.jhtml)
Tabbed By: Jo Lefebure (whipy@hotmail.com)

(1)                    (2)

e|-------------------|---------------------------------|
b|--3----2------2-3--|--3----2------2-3-2-3-2-3---3~~--|
g|--4----2------0-0--|--4----2------0-0-0-0-0-0---0~~--|
d|--4----2------0-0--|--4----2------0-0-0-0-0-0---0~~--|
a|--2----0------2-2--|--2----0------2-2-2-2-2-2---2~~--|
e|------------3---3--|------------3---3---3---3---3~~--|

(3)

e|------------------------|
b|------------------------|
g|------------------------|
d|------------------------|
a|--x-x-x-x-x-x---x-x--x--|
e|--7-x-7-x-7-x---9-10-x--|

(4)

e|--0---0---0--|--0---0---0--|
b|--0---0---0--|--0---0---0--|
g|--7---0---4--|--4---4---4--|
d|--4---4---5--|--5---5---5--|
a|--5---5---5--|--5---5---5--|
e|--7---5---3--|--0---2---3--|

(5)

e|--------------------------------|
b|--------------------------------|
g|--------------------------------|
d|--------------------------------|
a|--x--x--x-x--x-x-x-x-x-x-x-x-x--|
e|--7--x--7-7--x-7-x-7-x-7-7-x-x--|
Tap to rate this tab
 
# A B C D E F G H I J K L M N O P Q R S T U V W X Y Z