Song name
# A B C D E F G H I J K L M N O P Q R S T U V W X Y Z

Toby Mac - Made To Love tab

Tabbed by:TIkiMan100


Tuning: standard


Intro
e|-------------------------------------------------------------------------|
B|-------------------------------------------------------------------------|
G|-------------------------------------------------------------------------|
D|----5-5--5-5-------------10-10--10-10------------------------------------|
A|----7-7--7-7--8-8--8-8---8--8---8--8---7-7--7-7--------------------------|
E|--------------6-6--6-6-----------------5-5--5-5--------------------------|

Verse
e|-------------------------------------------------------------------------|
B|-------------------------------------------------------------------------|
G|---7-7--7-7--------------10-10--10-10------------------------------------|
D|---7-7--7-7---8-8--8-8---10-10--10-10--7-7--7-7--------------------------|
A|---5-5--5-5---8-8--8-8---8--8---8--8---7-7--7-7--------------------------|
E|--------------6-6--6-6-----------------5-5--5-5--------------------------|

Chorus
e|-------------------------------------------------------------------------|
B|-------------------------------------------------------------------------|
G|---7---7-------10---10---------------------------------------------------|
D|---7---7-8---8-10---10-7-------------------------------------------------|
A|---5---5-8---8-8----8--7-------------------------------------------------|
E|---------6---6---------5-------------------------------------------------|
Riff toward the middle
e|-------------------------------------------------------------------------|
B|-------------------------------------------------------------------------|
G|-------7--10------7--9------7--9h10-------7--10-10-------------(x2)------|
D|-----7----------7---------7-------------7----------10--------------------|
A|---5----------5---------5-------------5---------------8------------------|
E|--------------------------------------------------------8----------------|

Play second half of song
E|-------------------------------------------------------------------------|
B|-------------------------------------------------------------------------|
G|--10--10-----------------------------------------------------------------|
D|--10--10---10--10---12--12---8--8----------------------------------------|
A|--8---8----10--10---12--12---8--8----------------------------------------|
E|-----------8---8----10--10---6--6----------------------------------------|

Thats what i got. listen seen when to play what
Tap to rate this tab
 
# A B C D E F G H I J K L M N O P Q R S T U V W X Y Z