Song name
# A B C D E F G H I J K L M N O P Q R S T U V W X Y Z

Toby Mac - Irene tab

Introducción Irene (Alive and transported live vercion):                       
(Solamente guitarra electrocriolla)



E----------------------7/14-14-15-14-13-12-11-12----------------------------|
B----------------5-7-8---------------------12-13-12-10-12-10----------------|
G--------------4---------------------------------------------12-11-12-11-9--|
D----------4-5--------------------------------------------------------------|
A------2/7------------------------------------------------------------------|
E--0-3----------------------------------------------------------------------|

E------------14---12-12\-8--8----7-8-7--8/12--12t--10--8--7---|
B----10--12--12---13-13\-10-10---10---------------------------|
G--8---------14---14-14\-9--9----9----------------------------|
D------------13------------------7----------------------------|
A-------------------------------------------------------------|
E-------------------------------------------------------------|

E--8p7h5p7--7-5--------------------------------------------------------|
B---------------8--7h8p7p5h7-5-4---------------------------------------|
G---------------------------------5-4-5-4--2-0-------------------------|
D-----------------------------------------------4-5-4-2-1--------------|
A----------------------------------------------------------------------|
E----------------------------------------------------------------------|

E-----------------2--0t------|
B--------------1-------------|
G-----------2----------------|
D--------1-------------------|
A-3/6--2---------------------|
E----------------------------|
Tap to rate this tab
# A B C D E F G H I J K L M N O P Q R S T U V W X Y Z