Toby Turner - Tobys Theme tab

E|--------------------------|--------------------------|
B|--------------------------|--------------------------|
G|--------------------------|--------------------------|
D|-------0--5/7-------------|--------------3p0---------|
A|------------------7/5-----|-----5--5---------3p0-----|
D|--3/5----------0----------|--------------------------|



E|-----------------------|-------------------|
B|-----------------------|-------------------|
G|-----------------------|-------------------|
D|-------0--5/7----------|--5--5--5/7--7--7--|
A|-----------------------|--3--3--3/5--5--5--|
D|--3/5----------0-------|-------------------|



E|--------------------------|--------------------------|
B|--------------------------|--------------------------|
G|--------------------------|--------------------------|
D|-------0--5/7-------------|--------------3p0---------|
A|------------------7/5-----|-----5--5---------3p0-----|
D|--3/5----------0----------|--------------------------|



E|------------------------|-------------------------|
B|------------------------|-------------------------|
G|------------------------|-------------------------|
D|------------------------|--3----------------------|
A|---------------0--3--5--|--------3-----3/5--------|
D|--3/5--0--3/5-----------|-------------------------|




SOLO:


E|--10p8----8-----------------------|--10p8----8----8-10/12-10----10--|
B|-------10---10-8-10-11-10-8-10----|-------10---10------------13-----|
G|-------------------------------7--|---------------------------------|
D|----------------------------------|---------------------------------|
A|----------------------------------|---------------------------------|
D|----------------------------------|---------------------------------|



E|--10p8----8-----------------------|---------------------------------|
B|-------10---10-8-10-11-10-8-10----|--11-10-8------------------------|
G|-------------------------------7--|----------10-9----10-9-----------|
D|----------------------------------|---------------10------10-10/12--|
A|----------------------------------|---------------------------------|
D|----------------------------------|---------------------------------|
Tap to rate this tab
 
# A B C D E F G H I J K L M N O P Q R S T U V W X Y Z