Song name
# A B C D E F G H I J K L M N O P Q R S T U V W X Y Z

Tobymac - Burn For You tab

Help us improve GuitareTab! Take a short survey!
Artist:        Tobymac
Song:          Burn For You (Live in Dallas)
Album:         Alive and Transported
Tabbed by:     R. P. Benik III
Profile Name:  geckio007
Tuning:        Drop D


I didn't feel like figuring out the strum pattern for the chorus, but I gave 
the chords.  I love the Alive and Transported album by Tobymac you can really
hear what the guitar is doing.  Here's the tab.  It's probably the most
accurate tab you are going to get for this song minus the strum patterns.  I
do the best I can with strum patterns but sometimes it's too time consuming to
tab and its just easier to listen to the song.  Enough of my typing, here's
the tab:

This song is pretty simply.  At then they just play the chorus over and over
in different strum patterns, sometimes with P.M., sometimes without.  Just
listen to the song to get it right.


Legend:

h     hit on
p     pull off
^     bend
/     slide to higher note
\     slide to lower note
~     tremelo
P.M.  Palm Muting



Verse 1:


|----------------------------------|
|-------3------6------1------------|
|-----2------5---------------4/5---|
|--0------3---------3------2-------|
|----------------1------0----------|
|----------------------------------|


|-----------------------------------------------------------------------|
|-----------------------------------------------------------------------|
|-----------------------------------------------------------------------|
|------10-------10-------10-------3-------10-------10------3-------3----|
|----8----8---8----8---8----8---3---3---8----8---8---8---3---3---3---3--|
|--8--------8--------8--------3-------8--------8-------3-------3--------|


|--------------------------------------------------------------------------|
|--------------------------------------------------------------------------|
|--------------------------------------------------------------------------|
|------10-------10-------10-------3-------10-------10---3-3-3-3-3-3-3------|
|----8----8---8----8---8----8---3---3---8----8---8----8-3-3-3-3-3-3-3------|
|--8--------8--------8--------3-------8--------8--------3-3-3-3-3-3-3------|


Chorus:

|--------------|
|--------------|
|--------------|
|--0--3--8--7--|
|--0--3--8--7--|
|--0--3--8--7--|


Verse 2:

P.M...   .....   .................
|-----------------------------------|
|-----------------------------------|
|-----------------------------------|
|------7-------7--------------------|
|--5-5---5-8-8---8-----8-------7----|
|------------------8-8---8-7-7---7--| x7

P.M...   .....   .
|---------------------|
|---------------------|
|---------------------|
|------7-------7---8--|
|--5-5---5-8-8---8-8--|
|------------------8--|


|--------------------------------------|
|--------------------------------------|
|--------------------------------------|
|--0----3--8----7--0----3--8----7-6-5--|
|--0----3--8----7--0----3--8----7-6-5--|
|--0----3--8----7--0----3--8----7-6-5--|

P.M.               .........
|-------------------------------------|
|-------------------------------------|
|-------------------------------------|
|--0----3--8----7--0-0-0-0-0-3-3-3-8--|
|--0----3--8----7--0-0-0-0-0-3-3-3-8--|
|--0----3--8----7--0-0-0-0-0-3-3-3-8--|


End with:

P.M...
|---------|
|---------|
|---------|
|--0-0-0--|
|--0-0-0--|
|--0-0-0--|
Related for Burn For You tab