Song name
# A B C D E F G H I J K L M N O P Q R S T U V W X Y Z

Tobymac - Irene tab

------This is the original work of Tobymac and the Portable-Sounds crew----- This Irene
Tobymac. It is an Amercian-Latin song so it might sound a little different. It is
to be played as fast as you can but I can't eactly tab that so listen to to it on 
or youtube.com few times and then you'll get it. Its a hard rythm to get but all in
it is an intermediate tab.   GOOD LUCK

 Intro
e]----------10--11-12-13-14--14-13-14-13-12-13-12-11-12-11]-----------------|
 ]----------9---------------------------------------------]9-11-12-12-11-12-|
 ]----------9---------------------------------------------]-----------------|
 ]-------10-9---------------------------------------------]-----------------|
 ]----2/7-------------------------------------------------]-----------------|
E]-0-3----------------------------------------------------]-----------------|

e]---------------------------------------------------12-11-10--]5-7-8/12 12-|
 ]11-9-11-9-11-9---------------------------------12-11---------]------------|
 ]--------------11-12-11-12-11-12-11-12-----12-11--------------]------------|
 ]-------------------------------------12-11-------------------]------------|
 ]-------------------------------------------------------------]------------|
E]-------------------------------------------------------------]------------|

e]10-9 8-7-5--5-7-8-7-5-7-8-7-5---------------------------------------------|
 ]-----------------------------5-7-8-7-5-7-8-7-5-4-5------------------------|
 ]--------------------------------------------------5-7-8-7-5-7-8-7-5-7-8-7-|
 ]--------------------------------------------------------------------------|
 ]--------------------------------------------------------------------------|
E]--------------------------------------------------------------------------|

e]---------------------------------------------------------------------------|
 ]---------------------------------------------------------------------------|
 ]-5-4-5-4-------------------------------------------------------------------|
 ]--------5-7-8-7-5-7-8-7-5-7-8-5-5-4-5-4-5-4-5-4----------------------------|
 ]-----------------------------------------------5-4-5-4-5-4-5-4-5-4-5-------|
E]---------------------------------------------------------------------5-4---|

e]------------------------------------4-3-2-1-]
 ]-------------------------------2-3-0--------]
 ]--------------------------2-3-0-------------]
 ]---------------------2-3-0------------------]
 ]----------------2-3-0-----------------------]
E]5-4-5-4--4-2-3-0----------------------------]
Tap to rate this tab
# A B C D E F G H I J K L M N O P Q R S T U V W X Y Z