Song name
# A B C D E F G H I J K L M N O P Q R S T U V W X Y Z

Tobymac - Tonight tab

this is all by ear
tabbed by franmansr

TobyMac
Tonight

INTRO PT.1

Lead Guitar
E|-----------------------------------------------------------------| 
B|---------------------------------8-8-9-8-8-8-9-8-8-8-9-8---------|
G|---------------------------------8-8-8-8-8-8-8-8-8-8-8-8---------|
D|-----------------------------------------------------------------|
A|-----------------------------------------------------------------|
E|-----------------------------------------------------------------|

"HEY!"

INTRO PT.1(CHORUS)(repeat 2 times)

Lead Guitar
E|-----------------------------------------------------------------|
B|-8-8-8-8-4-4-3-3-8-8-8-8-8-8-8-8-8-8-8-8-4-4-3-3-8-8-8-8-8-8-8-8-|
G|-8-8-7-7-5-5-3-3-8-8-8-8-8-8-8-8-8-8-7-7-5-5-3-3-8-8-8-8-8-8-8-8-|
D|-----------------------------------------------------------------|
A|-----------------------------------------------------------------|
E|-----------------------------------------------------------------|
 
Rythym Guitar
E|-----------------------------------------------------------------|
B|-----------------------------------------------------------------|
G|-5-5-5-5-5-5-5-5-8-8-8-8-8-8-8-8---------------------------------|
D|-5-5-5-5-5-5-5-5-8-8-8-8-8-8-8-8-8-8-8-8-8-8-8-8-8-8-8-8-8-8-8-8-|
A|-3-3-3-3-3-3-3-3-6-6-6-6-6-6-6-6-8-8-8-8-8-8-8-8-8-8-8-8-8-8-8-8-|
E|---------------------------------6-6-6-6-6-6-6-6-6-6-6-6-6-6-6-6-|

Bass Guitar
G|-----------------------------------------------------------------|
D|-----------------------------------------------------------------|
A|-3-3-3-3-3-3-3-3-6-6-6-6-6-6-6-6---------------------------------|
E|---------------------------------6-6-6-6-6-6-6-6-6-6-6-6-6-6-6-6-|

Synthesizer (Converted to guitar)
E|-----------------------------------------------------------------|
B|-----------------------------------------------------------------|
G|-----------------------------------------------------------------|
D|-----------------------------------------------------------------|
A|---------------------------------------------------3-5-6---3-5-6-|
E|-----------------------------------------------------------------|

ENJOY!
Tap to rate this tab
 
# A B C D E F G H I J K L M N O P Q R S T U V W X Y Z