Song name
# A B C D E F G H I J K L M N O P Q R S T U V W X Y Z

Tobymac - Get This Party Started tab

This is the solo for Tmacs Get This Paty Started from the album Momentum.

e-----------------------|
b-----------------------|
g-----------------------|   x2
d----2-0-2--------------|
a-----------------------|
e------------55-3-5-3---|


e-----------------------------------7-5-|
b-------------------------5-3-7-6-7-----|
g---------2-0-3-1-4-2-6-4---------------|
d---2-0-2-------------------------------|
a---------------------------------------|
e---------------------------------------|
Tap to rate this tab
 
# A B C D E F G H I J K L M N O P Q R S T U V W X Y Z