Song name
# A B C D E F G H I J K L M N O P Q R S T U V W X Y Z

Tobymac - Im For You tab

Help us improve GuitareTab! Take a short survey!
Im for you
Tobymac & Diverse City

E---------------------------------------------------------------------|
B------------------------10-10-10-x-x-x-----------x-x-x---------------|
G-4-4-4-x-x-x-7-7-7-x-x-x-9-9-9---x-x-x---7-7-7---x-x-x---------------|
D-4-4-4-x-x-x-7-7-7-x-x-x-7-7-7---x-x-x---7-7-7---x-x-x---------------|
A-2-2-2-x-x-x-5-5-5-x-x-x---------x-x-x---5-5-5---x-x-x---------------|
E---------------------------------------------------------------------|

E---------------------------------------------|
B--------------------------------10-10-10-----|
G--4-4-4--x-x-x---7-7-7---x-x-x---9--9--9---7-|
D--4-4-4--x-x-x---7-7-7---x-x-x---7--7--7---7-|
A--2-4-4--x-x-x---5-5-5---x-x-x-------------5-|
E---------------------------------------------|

Verse 1:
Tell me where its hurting
Are you burning?
Running just to catch your breath
And going nowhere
It's getting old when you feel like you got nothing left
Well it ain't over 'til it's over
I told you since the day we met

(Guitar 1)
E-----------------------------------------------------------------------|
B------------------------------------10--10--10--x-x-x------------------|
G---4-4-4---x-x-x---7-7-7---x-x-x----9---9---9---x-x-x---7-7-7---x-x-x--|
D---4-4-4---x-x-x---7-7-7---x-x-x----7---7---7---x-x-x---7-7-7---x-x-x--|
A---2-2-2---x-x-x---5-5-5---x-x-x------------------------5-5-5---x-x-x--|
E-----------------------------------------------------------------------|                
            x2 pause then x1

(Guitar 2)
E|-----17----14----12---------------------------------|
B|--------------------------14----12------------------|
G|---------------------------------------14-----------|
D|----------------------------------------------------|
A|----------------------------------------------------|
E|----------------------------------------------------|
[Play during pause]

Pre-Chorus
So let me be the voice through all the noise

(Guitar 2)
E-----------------------------------|
B-----------------------------------|
G---4-4-4-4-4-4-4-4-----------------|
D---4-4-4-4-4-4-4-4---7-------------|
A---2-2-2-2-2-2-2-2---7-------------|
E---------------------5-------------|

Chorus
Whatever I gotta be
I'll be for you
Whatever you need from me
To see you through
Everyone of us has stumbled
Everybody's humbled
We hit the ground and our lives crumble
Whatever I gotta be
I'll be for you
I'm for you

If you never knew
If you never knew
I'm for you
You know it's true

(Guitar 1)
E--------------------------------------|
B--------------------------------------|
G------------7-7-7-7-------------------|
D--4-4-4-4---7-7-7-7--7-7-7-7--2-2-2-2-|
A--4-4-4-4---5-5-5-5--7-7-7-7--2-2-2-2-|
E--2-2-2-2------------5-5-5-5--0-0-0-0-| x4

E----------------------------------------------------------------------|
B------------------------10-10-10-x-x-x-----------x-x-x----------------|
G-4-4-4-x-x-x-7-7-7-x-x-x-9-9-9---x-x-x---9-9-9---x-x-x----------------|
D-4-4-4-x-x-x-7-7-7-x-x-x-7-7-7---x-x-x---9-9-9---x-x-x----------------|
A-2-2-2-x-x-x-5-5-5-x-x-x---------x-x-x---7-7-7---x-x-x----------------|
E----------------------------------------------------------------------|

E---------------------------------------------|
B--------------------------------10-10-10-----|
G--4-4-4--x-x-x---7-7-7---x-x-x---9--9--9---9-|
D--4-4-4--x-x-x---7-7-7---x-x-x---7--7--7---9-|
A--2-4-4--x-x-x---5-5-5---x-x-x-------------7-|
E---------------------------------------------|


(Guitar 2)
Part 1						Part 2
E----------------------------------------------    E------------------------|
B--------------------10--------------------------  B---10-9-10-9------------|
G---------------9----------------------9---------- G--------------11--9--11-|
D---11---12--------------11---12---------9----     D------------------------|
A------------------------------------------------- A------------------------|
E------------------------------------ x2           E------------------------|            
            x2 then part 1 once only

(no guitar)
I know the feeling
I know it's real when the drama's all in your face

Verse 2:
You see a mountain
I hear a promise - it's never more than we can take
Well it ain't over, 'til it's over
We can learn from our mistakes

E-----------------------------------------------------------------------|
B-------------------------------------10-10-10---x-x-x------------------|
G---4-4-4---x-x-x---7-7-7---x-x-x----9---9---9---x-x-x---7-7-7---x-x-x--|
D---4-4-4---x-x-x---7-7-7---x-x-x----7---7---7---x-x-x---7-7-7---x-x-x--|
A---2-2-2---x-x-x---5-5-5---x-x-x------------------------5-5-5---x-x-x--|
E-----------------------------------------------------------------------|                     x2

(Then Pre chorus  chorus first half only- Bridge 1)

Bridge 1:
Everyone of us will fall (Ill be for you)
Have our backs against the wall (Ill be for you)
And everyone shares a need (shares a need) to be loved
You've always been for me
So I will be for you
That's just what it means (what is means) to love

(Guitar 2)
E---------------------------------------------------------------------------|
B---------------------------------------------------------------------------|
G---4-4-4-4-4-4-4-4---7-7-7-7-7-7-7-7---------------------------------------|
D---4-4-4-4-4-4-4-4---7-7-7-7-7-7-7-7---4-4-4-4-4-4-4-4---2-2-2-2-2-2-2-2---|
A---2-2-2-2-2-2-2-2---5-5-5-5-5-5-5-5---4-4-4-4-4-4-4-4---2-2-2-2-2-2-2-2---|
E---------------------------------------2-2-2-2-2-2-2-2---0-0-0-0-0-0-0-0---|      x2

Whatever I gotta be, Ill be for you
Whatever you need from me to see ya through
Whatever I gotta be, Ill be for you
Im for you, Im for you

Bridge 2:
(Guitar 1)
E--------------------------------------------------------------|
B--------------------------------------------------------------|
G--------------------------7-----------------------------------|
D----------4-------------7---7-----------7-------------2-------|
A-------4----4--------5----------------7---7---------2---2-----|
E----2-------------------------------5-------------0-----------|x4

(Guitat 2)
E|--------------------------------------------------|
B|--------10---9---10---9---------------------------|
G|----------------------------11---9---11-----------|
D|--------------------------------------------------|
A|--------------------------------------------------|
E|--------------------------------------------------|
[x4 starting at x3 on Guitar 1]

(Chorus)

Mid-Chorus Solo
(Guitar 2)
E|---------------------------------------------------------|
B|-----10-9------10-9-10-9---------10-9-10-9---------------|
G|-----------11-------------11-----------------------11----|
D|---------------------------------------------------------|
A|---------------------------------------------------------|
E|---------------------------------------------------------| x2

 Bridge 3:
Every time you fall (Ill be for you)
If your backs against the wall (Ill be for you)
Cause youve always been for me (Ill be for you)
Gonna love til you believe (Ill be for you)

(Guitars 1&2)
E------------------------------------------|
B------------------------------------------|
G----7-7-7-7-------------------------------|
D----7-7-7-7----7-7-7-7----2-2-2-2-2-2-2-2-|
A----5-5-5-5----7-7-7-7----2-2-2-2-2-2-2-2-|
E---------------5-5-5-5----0-0-0-0-0-0-0-0-|  x 4

[Ad lib]

(Guitar 1)


E----------------------------------------------------------------------------|
B------------------------------------------10-10-10---x-x-x------------------|
G---4-4-4---x-x-x---7-7-7---x-x-x----------9---9---9---x-x-x---9-9-9---x-x-x-|
D---4-4-4---x-x-x---7-7-7---x-x-x----------7---7---7---x-x-x---9-9-9---x-x-x-|
A---2-2-2---x-x-x---5-5-5---x-x-x------------------------------7-7-7---x-x-x-|
E----------------------------------------------------------------------------|
(Guitar 2)
E|----------------------------------------12-12-12------------------|
B|-----12-12-12---15-15-15------------------------------------------|
G|----------------------------14-14-14------------------------------|
D|------------------------------------------------------------------|
A|------------------------------------------------------------------|
E|------------------------------------------------------------------|


Outro
(Guitar 1)
E-----------------------------------------------------------------------|
B------------------------------------------10-10-10---x-x-x-------------|
G---4-4-4---x-x-x---7-7-7---x-x-x----9---9---9---x-x-x---7-7-7---x-x-x--|
D---4-4-4---x-x-x---7-7-7---x-x-x----7---7---7---x-x-x---7-7-7---x-x-x--|
A---2-2-2---x-x-x---5-5-5---x-x-x------------------------5-5-5---x-x-x--|
E-----------------------------------------------------------------------|

E-----------------------------------------|
B-----------------------------------------|
G---4-4-4---x-x-x---7-7-7---x-x-x---------|
D---4-4-4---x-x-x---7-7-7---x-x-x----7----|
A---2-2-2---x-x-x---5-5-5---x-x-x----7----|
E------------------------------------5----|
Related for Im For You tab