Guitaretab - guitar tabs
Song name
# A B C D E F G H I J K L M N O P Q R S T U V W X Y Z
Home / T / Tobymac / Boomin tab

Tobymac - Boomin tab

Song:  Boominí
Artist:  tobyMac
Album:  Portable Sounds

Tabbed by:  hmdet
Date:  November 21, 2007


Here are the basics.  Itís not perfect, but is enough to get the average
player like me doing the song.  There are a bunch of fills that you can figure out or improvise.


Best to bar the top 3 or 4 strings while doing this, to avoid a lot of noise
E------------------------------------------------------------------|
B------------------------------------------------------------------|
G------------------------------------------------------------------|
D----------------------------------------8--7--6-------------------|
A--6--8--8--8--8--------6--8--8---8---8----------------------------|
D-----------------3--1---------------------------------------------|
[ Tab from: http://www.guitaretab.com/t/tobymac/99080.html ]
Alternative for those not clean enough to pick through this (like me)
Still works well to bar the top 3-4 strings
E---------------------------------------------------------|
B---------------------------------------------------------|
G---------------------------------------------------------|
D-----------------------3--1--------------------8--7--6---|
A--6--8--8--8--8--8--8--3--1--6--8--8--8--8--8--8--7--6---|
D-----------------------3--1--------------------8--7--6---|


Break in the middle
E-------------------------------------------------------------------------|
B----------------------8--6-----------------------------------------------|
G----------------------8--6---------------------------10-8----------------|
D----3--3--3--3--3--3--8--6--3--3--3--3--3--3--8---6-------10-8-6-8h-6----|
A----3--3--3--3--3--3--------3--3--3--3--3--3--8---6-------------------8--|
D----3--3--3--3--3--3--------3--3--3--3--3--3--8---6----------------------|


Break towards ending
E-------------------------------------------------------------|
B---------------------8--10-----------------------------------|
G---------------------8--10-----------------------------------|
D---------------------8--10--------------------8--7--6--------|
A---6--8--8--8--8--8---------6--8--8--8--8--8-----------------|
D-------------------------------------------------------------|

Another rockiní jam by tobyMac!
Related for Boomin tab