Song name
# A B C D E F G H I J K L M N O P Q R S T U V W X Y Z

Tocotronic - Eure Liebe Totet Mich tab

Tocotronic- Eure Liebe tötet mich
Album: Schall & Wahn (2010)

Tab von Paul Matthaei

Ganz einfach! Erst anhören, dann spielen!


Capo 2

Intro:

e:-------------------------------------------0---|
B:-------------------------------------------0---|
G:-------------------------------------------0---|
D:--------------------------2---0---2---0----2---|
A:--------------2-0---0--2----2---2---2---2--2---|
E:--------0-2-3-----3------------------------0---|

e:-------------------------------------------0---s0---|
B:-------------------------------------------0---s0---|
G:-------------------------------------------0---s0---|
D:--------------------------2---0---2---0----2---s4---|
A:--------------2-0---0--2----2---2---2---2--3---s5---|
E:--------0-2-3-----3------------------------x----x---|

Em Em7 Cmaj7 Dadd9 (2x)

F G F G Asus E F E

Verse:

Em   Cmaj7 Dadd9 Cmaj7
Eure Liebe tötet mich
Auch wenn ihr bereut
Ich verzeih euch nicht

Eure Liebe bringt mich ins Grab
Jeden Tag
Senkt ihr mich tiefer hinab

Refrain:

F    G           F
Eure Liebe tötet mich
 G            Asus
Und doch bin ich
 E
Unersättlich!
F    G                F
Wenn ihr zur gleichen Zeit
     G         Asus     E
Die Medizin verschreibt
            F         E
Unersetzlich!

Em Em7 Cmaj7 Dadd9

Verse:

Die Blumen glotzen mich an
Von oben herab
Ein Sterben lang

Die Flaggen wehen im Licht
Auch wenn ihr bereut
Ich verzeih euch nicht

F    G           F
Eure Liebe tötet mich
 G            Asus
Und doch bin ich
 E
Unersättlich!
F    G                F
Wenn ihr zur gleichen Zeit
     G         Asus     E
Die Medizin verschreibt
            F         E
Unersetzlich!


Bridge mit Verse Akkorden!


Em   Cmaj7 Dadd9 Cmaj7
Eure Liebe tötet mich
Auch wenn ihr bereut
                  Dadd9
Ich verzeih euch nicht

Ende!

Danke viel Spaß!
Tap to rate this tab
 
# A B C D E F G H I J K L M N O P Q R S T U V W X Y Z