Song name
# A B C D E F G H I J K L M N O P Q R S T U V W X Y Z

Tocotronic - Mach Es Nicht Selbst chords

Highlighted       Show chord diagrams
Tocotronic
Schall und Wahn (2010)

Mach es nicht selbst

		   G
Was du auch machst Mach es nicht selbst
        D           Em
Auch wenn du dir den Weg verstellst
            G
Was du auch machst Sei bitte schlau
        D     Em
Meide die Marke Eigenbau
          G
Heim und Netz         Werkerei      Stehlen dir
            [ 3 ]   [ 3 ]   [ 3 ]   [ 3 ]
E-----------3-3-3---3-3-3---3-3-3—--3-3-3----|
B-----------3-3-3---3-3-3---3-3-3—--3-3-3----|
G-----------4-4-4—--4-4-4—--4-4-4—--4-4-4----| [ 3 ]  =  Triolen
D-----------5-----x-5-----x-5-----x-5-----x--|
A-----------5-----x-5-----x-5-----x-5-----x--|
E--------------------------------------------|

  D                   Em
 deine    schöne  Zeit
  [ 3 ]    [ 3 ]   [ 3 ]    [ 3 ]
E-5-5-5---5-5-5---7-7-7---7-7-7-|
B-7-7-7---7-7-7---9-9-9---9-9-9-|
G-7-7-7---7-7-7---9-9-9---9-9-9-|
D-7-----x-7-----x-9-----x-9-----|
A-5-----x-5-----x-7-----x-7-----|
E-------------------------------|

             G
Wer zu viel selber macht    Wird schließlich dumm
            [ 3 ]   [ 3 ]   [ 3 ]   [ 3 ]
E-----------3-3-3---3-3-3---3-3-3—--3-3-3----|
B-----------3-3-3---3-3-3---3-3-3—--3-3-3----|
G-----------4-4-4—--4-4-4—--4-4-4—--4-4-4----|
D-----------5-----x-5-----x-5-----x-5-----x--|
A-----------5-----x-5-----x-5-----x-5-----x--|
E--------------------------------------------|

D                  C              G
Ausgenommen       Selbstbefriedigung
  [ 3 ]   [ 3 ]   [ 3 ]   [ 3 ]   [ 3 ]   [ 3 ]
E-5-5-5---5-5-5---3-3-3---3-3-3---3-3-3---3-3-3-|
B-7-7-7---7-7-7---5-5-5---5-5-5---3-3-3---3-3-3-|
G-7-7-7---7-7-7---5-5-5---5-5-5---4-4-4---4-4-4-|
D-7-----x-7-----x-5-----x-5-----x-5-----x-5-----|
A-5-----x-5-----x-3-----x-3-----x-5-----x-5-----|
E-----------------------------------------------|
            G
Was du auch machst/ Mach es nicht selbst
            D                     Em
Was du auch machst/ Mach es nicht selbst

       G
Ob du versendest/ oder bestellst/
            D                     Em
Was du auch machst/ Mach es nicht selbst
 
strum each chord a few times fast 

E---------------|
B---------------|
G--9-11-12------|
D--x-x--x-------|
A--7-9--10------|
E---------------|


            G
Was du auch machst/ Mach es nicht selbst
             D          Em
Auch wenn du dir darin gefällst

             G
Wer zu viel selber macht der macht sich krumm
D           C               G
Ausgenommen Selbstauslöschung

Was du auch machst/ Mach es nicht selbst 
Was du auch machst/ Mach es nicht selbst
Ob du verschwindest/ oder verwelkst
Was du auch machst/Mach es nicht selbst

Was ihr auch macht/Macht es nicht selbst
Was ihr auch macht/Macht es nicht selbst
Ob ihr verblendet /oder erhellt
Was ihr auch macht/Macht es nicht selbst

strum each chord a few times fast 
E-------|-----------|---------|
B-------|-----------|---------|
G--9-11-|7-9-11-12--|7-9-11-9-|
D--x-x--|x-x-x--x---|x-x-x—-x-|
A--7-9--|5-7-9--10--|5-7-9—-7-|
E-------|-----------|---------|

Tap to rate this tab
# A B C D E F G H I J K L M N O P Q R S T U V W X Y Z