Song name
# A B C D E F G H I J K L M N O P Q R S T U V W X Y Z

Tocotronic - Jackpot tab

Tocotronic - Jackpot

Tuning: Standard

Intro:
e||-----------------||
B|:-----------------||
G||-------------3---||
D||-----3-----1-----||3x
A|:---1---0-2-------||
E||-2---------------||


Verse & Chorus:
e|-------------------------------------|
B|-------------------------------------|
G|----------55555555-------------------|
D|-33333333-55555555-55555555----------|
A|-33333333-33333333-55555555-77777755-|
E|-11111111----------33333333-55555533-|


After chorus something like a solo:
e|-13----13-|----------|----------|----------|
B|----------|-13----13-|----------|----------|
G|----------|----------|-12----12-|-14--12---|
D|----------|----------|----------|----------|
A|----------|----------|----------|----------|
E|----------|----------|----------|----------|
 |          |          |          |          |
 |          |          |          |          |
e|----------|----------|----------|----------|
B|----------|----------|----------|----------|
G|----------|-55555555-|----------|----------|
D|-33333333-|-55555555-|-55555555-|----------|
A|-33333333-|-33333333-|-55555555-|-77777755-|
E|-11111111-|----------|-33333333-|-55555533-|

Outro after second chorus + solo:
e|----------------------------12--10------------------|
B|-13---------13---------13-----------13---------13---|
G|------12-14------12-14-------------------12-14------|
D|----------------------------------------------------|
A|----------------------------------------------------|
E|----------------------------------------------------|

e|-12-------------------12--10------------------12-----------|
B|------13---------13-----------13---------13-------13-------|
G|-----------12-14-------------------12-14--------------14---|
D|-----------------------------------------------------------|
A|-----------------------------------------------------------|
E|-----------------------------------------------------------|

e|-12-12-10-10------12---------------12-12-10-10------|
B|-------------13------13--13--------------------13---|
G|----------------------------14--14------------------|
D|----------------------------------------------------|
A|----------------------------------------------------|
E|----------------------------------------------------|

e|-12---------------12-12-10-10------|
B|----13--13--------------------13---|
G|-----------14--14------------------|
D|-----------------------------------|
A|-----------------------------------|
E|-----------------------------------|
Tap to rate this tab
# A B C D E F G H I J K L M N O P Q R S T U V W X Y Z