Song name
# A B C D E F G H I J K L M N O P Q R S T U V W X Y Z

Tocotronic - Gegen Den Strich tab

-------------------------------------------------------------------------------
			     Gegen den Strich - Tocotronic
-------------------------------------------------------------------------------
Tabbed by: NeoCortex	
Email: NeoCortex79@gmx.at (would be nice to get your comments!)

Tuning: Standard (E-A-D-G-B-E)


This is a great and not too hard to play song
it's very quiet and melancholy with a nice flow and a simple yet touching melody 



Chords used: 

a minor
F major
e minor
G major
Fadd9

    a    F    e    G  Fadd9 
     
e|--0----1----0----3----3----|
B|--1----1----0----0----1----|
G|--2----2----0----0----2----|
D|--2----3----2----0----3----|
A|--0----3----2----2----x----|
E|-------1----0----3----1*---|
                          *play the F bass note with your thumb


Intro





e|----------------------------------|
B|--10h11p10--8h10p8--6h8p6-5-------|
G|----------------------------------|
D|----------------------------------|
A|----------------------------------|
E|----------------------------------|



Main melody (lead guitar; rhythm guitar play a chord until verse)

e|---------------|----------------|-----------|--------------|
B|---------------|----------------|-----------|--------------|
G|------5-5------|----------------|-----------|--------------|
D|--3------------|----------------|-----------|-(9)*---------|
A|---------------|------5-5-5--5--|-7---------|-(7)*---------|
E|---------------|----------------|-----------|--------------|

*play notes in parenthesis only when harmony changes to e chord in verse
 - otherwise sustain the e on the 7th fret from the previous measure



Listen to the song for the rhythm
Verse: 

rhythm guitar plays

|F|F|a|a|
|F|F|a|e|
|F|F|a|e|
|G|G|F|F|

lead guitar continues main melody 3x
 - when harmony switches to G & F lead guitar plays G (10th) and F (8th fret) powerchords respectively



Chorus: 

|G|G|a|e|
|G|G|a|e|
|G|G|a|e|
|G|G|a|e|
|F-Fadd9|F-Fadd9|F-Fadd9|F-Fadd9|*

* the rhythm guitar alternates between F and Fadd9
while  the lead guitar plays a different rhythm here and stays on F



Bridge (you might wish to play the G on 3rd fret here):


|a|e|G|F|
|a|e|G|F|
|a|e|G|F|
|a|e|G|F|





Structure:

Intro
Verse (2x)
Chorus
Interlude (like intro, check it out for yourself)
Verse
Chorus
Bridge
Chorus (2x skip the |F| part and let |F| ring the second time)

 





Lyrics with chords:


intro: a


F			  a
Ich denk an das, was Du empfiehlst:
F			   a	  e	
"Talent borrows, Genius steals"
F			    a	  e
An das was Du mir anvertraust: 
G			F
"Wähle Dir Deine Fallen aus"
F				       a	
Ich glaub ich kanns erst jetzt verstehen
F				a     e	
Wir müssen durch den Spiegel gehen
F			   a	   e
Danke auch für den Versuch
G			F
Das hier ist kein Wörterbuch


G
Du streichst mir über
     	a      e
Mein Gesi----cht
G
Gegen die Welt
             a     e
Gegen den Stri----ch
G
Meine Liebe
	  a     e
Dein Verzi-----cht
G
Gegen die Welt
	     a     e
Gegen den Stri----ch

F (Fadd9)


interlude: a


F		      a
Völker! Auf zum Gefecht!
F			    a	e
Die Illusion wird Menschenrecht
F				  a    e 
Ich bin nicht allein in meiner Sucht
G			     F	
Vor den Spießern auf der Flucht


G
Du denkst an mich
     	      a     e
Ich denk' an Di----ch
G
Gegen die Welt
     	     a     e
Gegen den Stri----ch
G
Und unser Denken
     	   a     e
Verbündet si----ch
G
Gegen die Welt
     	     a     e
Gegen den Stri----ch

F (Fadd9)


a     e       G    F
Jeden Morgen, jede Nacht
a     e       G    F
Jeden Morgen, jede Nacht
a     e       G    F
Jeden Morgen, jede Nacht
a     e       G    F
Jeden Morgen, jede Nacht



chorus....




| /  slide up
| \  slide down
| h  hammer-on
| p  pull-off
| ~  vibrato
| +  harmonic
| x  Mute note
===============================================================================
Tap to rate this tab
# A B C D E F G H I J K L M N O P Q R S T U V W X Y Z