Song name
# A B C D E F G H I J K L M N O P Q R S T U V W X Y Z

Today Is The Day - Temple Of The Morning Star tab

From the 1997 Relapse Records album "Temple of the Morning Star"
Official Website: http://www.todayistheday.org
This is a tab from the American grindcore/ experimental band Today Is The Day.


Noticed there arn;t any tabs of this band on the site, so I thought I'd post this song.

Backing Riff:

(acoustic version)

e-----------------------
B-----------------------
G-----------------------
D-0---0-0-0-0---0-0---0-
A-0h5-5-5-5-0h5-5-0h5-5-
E-----------------------

(electric version)

e-----------------------
B-----------------------
G-----------------------
D-----------------------
A-0h5-5-5-5-0h5-5-0h5-5-
E-----------------------

Lead Melody:

(acoustic)

e-----------------------------------------------------
B-6-6-6-6-6-8-8-8-8-8-8-11-11-11-11-11-10-10-10-10-10-
G-----------------------------------------------------
D-----------------------------------------------------
A-----------------------------------------------------
E-----------------------------------------------------

Variation 1:

e-------------------------------
B-6-6-6-6-6-5-5-5-5-5-3-3-3-3-3-
G-------------------------------
D-------------------------------
A-------------------------------
E-------------------------------

Variation 2:

e-------------------------------
B-6-6-6-6-6-8-8-8-8-8-3-3-3-3-3-
G-------------------------------
D-------------------------------
A-------------------------------
E-------------------------------

The electric version of the song has the same main melody and variations, but you
only play each not once and let it ring until the next note.


Hope this tab is correct, and happy playing!

(Could someone post some tabs from the "In the Eyes of God" album - I love it but
I can't figure it out!)
Tap to rate this tab
# A B C D E F G H I J K L M N O P Q R S T U V W X Y Z